Oops, an error
Loading. Please wait.

Maria Believe Me tab

by Scooter
4,248 views 9 this week
2 commentsread comments
1 2 3 4 5
x 10
add to favorites
×
Save as Personal and add changes to this tab that will be seen only by you. Learn more ›
×
You can save this tab as Personal to edit and correct it or add notes. All changes will be seen only by you. Learn more »
launch autoscroll
font size
0
reset
how to read this tab
guitar tuner
edit
Autoscroll
slow
fast
+/-
esc
set tempo
stop
Author
Just so you guys know this is my first tab, so email me if there is anything wrong. I 
it is pretty acurate though

e------------------------------------------------------------------------|
B------------------------------------------------------------------------|
G------------------------------------------------------------------------|
D-------2------2-0----------2---2----2-0---------------------------------|
A----0-----0---------3-3-3---3----3-------0--0--0------------------------|
E------------------------------------------------------------------------|
Suggest correction
Creating personal tab
Creating personal tab
You can edit any tab online and save it as your Personal.

You can edit, replace or remove any tab part or add personal notes – all changes will be seen only by you.

Personal tabs can be accessed anytime from any device, even offline.
Learn more »
comments
print report bad tab
2 comments total.
0 reply
changgang666 20 Sep 22, 2008 01:52 PM

sounds pretty good...such a simple part...sounds good to me...good job for your first tab.

+2 reply
andylish20 127 Nov 07, 2008 07:49 AM

one mistake... you wrote 0 instead of three and on the wrong line... it should be like this:

e-------------------------------------------------------------------|
B-------------------------------------------------------------------|
G-------------------------------------------------------------------|
D-------2------2-0----------2---2----2-----------------------------|
A----0-----0---------3-3-3---3----3----3---0--0--0-------------------|
E-------------------------------------------------------------------|

guest
You may want to rate the tab now too:
select rating
Wanna post a correction for this tab? Suggest correction