Oops, an error
Loading. Please wait.

One Always Hardcore intro tab

version 1
version 1

Intro

Interactive

by Scooter
6,584 views 3 this week
2 commentsread comments
1 2 3 4 5
1 last vote to show rating
add to favorites
×
Save as Personal and add changes to this tab that will be seen only by you. Learn more ›
×
You can save this tab as Personal to edit and correct it or add notes. All changes will be seen only by you. Learn more »
launch autoscroll
font size
0
reset
how to read this tab
guitar tuner
edit
Autoscroll
slow
fast
+/-
esc
set tempo
stop
Difficulty
-----------------------------------------------------------------------
                     Scooter - One (always hardcore)
-----------------------------------------------------------------------

I tried re-creating this tab as i love the start
of the song and it sounds beautiful. If anyone has
any suggestions/criticism then feel free to email me.

Tabbed by: c5cha7
Email: c5cha7@hotmail.com

Tuning: Standard
Legends: "/ slide up"

[Guitar 1]: Main - Not Repeated
e|-----------------------------------------|
B|---14-14-14-12--15-17--14-12-12/14-12-10-|
G|-----------------------------------------|
D|---14-14-14-12---------------------------|
A|-----------------------------------------|
E|-----------------------------------------|

e|-----------------------------------------|
B|-13-13-11-9-11--15-17--14-12-12/14-12-10-|
G|-----------------------------------------|
D|-13-13-----------------------------------|
A|-----------------------------------------|
E|-----------------------------------------|

[Guitar 2]: Background - Repeat x2
e|-----------------------------------------|
B|-----7--------7--------10----------------|
G|---7--------7--------9-------------------|
D|-7-----7--8-----8--9------7--------------|
A|-----------------------------------------|
E|-----------------------------------------|

I know, i know.. its pretty terrible but if you think
you can do better or lend a hand then feel free to email me.
I couldn't find this tab ANYWHERE on the internet so i thought
it'd be nice to share what i made.

            
            
Suggest correction
Creating personal tab
Creating personal tab
You can edit any tab online and save it as your Personal.

You can edit, replace or remove any tab part or add personal notes – all changes will be seen only by you.

Personal tabs can be accessed anytime from any device, even offline.
Learn more »
Give kudos to tab author, rate the tab!
1 2 3 4 5
comments
print report bad tab
2 comments total.
0 reply
bastardfan 10 Aug 15, 2007 05:03 PM

its the right lead...but theres a background part...it doesnt sound right alone

0 reply
notihs 16 Jan 19, 2015 12:52 PM

e|-------------------------------------------------------|
B|---14--14--14--12------15--17--14--12--12h14p12/10-----|
G|-------------------11----------------------------------|
D|-------------------------------------------------------|
A|-------------------------------------------------------|
E|-------------------------------------------------------|

e|-------------------------------------------------------|
B|---14--14-12-10--12------19--17--14--12--12h14p12/10---|
G|---------------------11--------------------------------|
D|-------------------------------------------------------|
A|-------------------------------------------------------|
E|-------------------------------------------------------|

more like this i think ;)

guest
Wanna post a correction for this tab? Suggest correction