Oops, an error
Loading. Please wait.

Alien Nation Tab

version 2
version 2

Whole song

Interactive

14,186 views 3 this week
1 commentread comment
1 2 3 4 5
accurate
x 15
add to favorites
launch autoscroll
font size
0
reset
how to read this tab
guitar tuner
Tab Pro tools
  • play this tab
  • loop segment
  • change instrument
  • show fretboard
  • metronome
×
Best way to learn
"Alien Nation"
Autoscroll
slow
fast
+/-
esc
set tempo
stop
Alien Nation
Scorpions


Transcribed by Diego Chapuis
comments/corrections to:
dchapuis@fing.edu.uy

intro, part 1 and 2

part 1

-------------------------------------------------
-------------------------------------------------
-----H-------------------------H-----------------
---9-8-----------------------9-8---------11-13---
-6------6-9-8-6--11-9-----6-----6-9-8-6--9-11----
-------------------9-7---------------------------

part 2

---------------------------------------------------------
---------------------------------------------------------
-8-8-8-8-8-8-8-8---------8-8-8-8-8-8-8-8-----------------
-8-8-8-8-8-8-8-8--11-13--8-8-8-8-8-8-8-8-----------11-13-
-6-6-6-6-6-6-6-6---9-11--6-6-6-6-6-6-6-6--4-4-4-4---9-11-
------------------------------------------2-2-2-2--------

--------------------------------------------------
--------------------------------------------------
-8-8-8-8-8-8-8-8---------8-8-8-8-8-8-8-8----------
-8-8-8-8-8-8-8-8--11-13--8-8-8-8-8-8-8-8----------
-6-6-6-6-6-6-6-6---9-11--6-6-6-6-6-6-6-6--4-4-4-4- 
------------------------------------------2-2-2-2-

-------------------------------------
-------------------------------------
-------------------------------------
-6--7--6--4-----6--7--6--4-----------
-6--7--6--4-----6--7--6--4-----------
-------------------------------------

verse (repeat several times and then add ending)

-----------------------------------------
-----------------------------------------
-----------------------------------------
-10-x-10--8-10-8-10---11-x-11--8-11-10-8-
--8-x--8--8--8-8--8----8-x--8--8--8--8-8-
-----------------------------------------

----------------------------------------
----------------------------------------
----------------------------------------
-10-x-10--8-10-8-10---11-x-11--8--8--10-
--8-x--8--8--8-8--8----8--x-8--6--6---8-
----------------------------------------

ending

-------------------------
-------------------------
-6-6-6-6----8------------
-6-6-6-6----8------------
-4-4-4-4----6------------
-------------------------

prechorus

-------------------------
-------------------------
-----------------twice---
-6--4--6----2-4----------
-6--4--6----2-4----------
-4--2--4----0-2----------

repeat intro part 1

verse

chorus

intro

before solo

---------------------------
---------------------------
---------------------------
--13-----------------------
--11-----------------------
---------------------------

solo rhythm

palm mute throughout

-----------------------------------------------------------------
-----------------------------------------------------------------
-8-8-8-8-8-8-8-8-------------8-8-8-8-8-8-8-8---------------------
-8-8-8-8-8-8-8-8-------------8-8-8-8-8-8-8-8---------------------
-6-6-6-6-6-6-6-6---4-4-4-4---6-6-6-6-6-6-6-6---4-4-3-2--(4 times)
-------------------2-2-2-2---------------------2-2-1-0-----------

intro

outro

---------------------------------------------------
---------------------------------------------------
-8-8-8-8-8-8-8-8-----------8-8-8-8-8-8-8-8---------
-8-8-8-8-8-8-8-8---11-13---8-8-8-8-8-8-8-8---------
-6-6-6-6-6-6-6-6---9-11----6-6-6-6-6-6-6-6---4-4-4-
---------------------------------------------2-2-2-

End.
comments
print report bad tab
1 comment total.
0 reply
lainar16 wrote on September 27 2013, 01:54 pm

I like it! If you make the solo it would be so awesome.

I want to post or [tab]
guest
You may want to rate the tab now too:
select rating
Please do not post tabs as comments. Select "correction" instead!