Oops, an error
Loading. Please wait.

Always Somewhere Tab

version 1
version 1

Solo

Whole song

Interactive

55,056 views 51 this week
no commentswrite comment
1 2 3 4 5
x 7
add to favorites
launch autoscroll
font size
0
reset
how to read this tab
guitar tuner
×
Best way to learn
"Always Somewhere"
Autoscroll
slow
fast
+/-
esc
set tempo
stop
[Intro]
e|--------------------11s9------------|-------------------------------------|
B|-12s9--9s11s7---7---12s11-----------|-------------------------------------|
G|--------------8--------------11s13--|-------------------------------------|
D|------------------------------------|-6-8---9--9-8----11s13~--------------|
A|------------------------------------|--------------11-------13b14----9s11-|
E|------------------------------------|-------------------------------------|

e|----------------------------|----------------------------------------------|
B|-11s12-9----9--9s11---------|----------------------------------------------|
G|---------11---------11-9-11-|-11s13-13-----5-7-9p7p5-5hp7-7-5--------------|
D|----------------------------|-11s13---13-9---------------------7-5---------|
A|----------------------------|--------------------------------------7-5-3---|
E|----------------------------|-------------------------------------------4-5|

(Solo After First Verse)
e|--14----12--11-----|---11---12--11---9---|----------------------------|
B|-------------------|---------------------|---/9---11--12----9------9--|
G|-------------------|---------------------|---------------------12-----|
D|-------------------|---------------------|----------------------------|
A|-------------------|---------------------|----------------------------|
E|-------------------|---------------------|----------------------------|

e|--14------12--11---|----12--11----9------|---14b16---14----12---11hp12---|
B|-------------------|---------------------|-------------------------------|
G|-------------------|---------------------|-------------------------------|
D|-------------------|---------------------|-------------------------------|
A|-------------------|---------------------|-------------------------------|
E|-------------------|---------------------|-------------------------------|

(Solo after Chorus)
e|-14b16--14---12-11h12p9--11--9--------------------------------------------
B|--------------------------------------------------------------------------
G|------------------------------------11-13----11-11s13s11------------------
D|-------------------------------11-13------13------------13hp14-13-11s9----
A|--------------------------------------------------------------------------
E|--------------------------------------------------------------------------

e|-------------|
B|-------------|
G|-------------|
D|---11s13-----|
A|---------11--|
E|-------------|

e|-12-14--16--16-14-12-11---------------------------------------------------|-
B|----------------------------------------------------------------------16--|-
G|-----------------------(13)13-15-15b16--13s11-------------13b15r-(13)-----|-
D|---------------------------------------------13-13--16b18-----------------|-
A|--------------------------------------------------------------------------|-
E|--------------------------------------------------------------------------|-

e|-------------------------14--12-------------------------|
B|----14b16--14bs12--14-12--------14b16-------------------|
G|--------------------------------------------------------|
D|--------------------------------------------------------|
A|---------------=----------------------------------------|
E|--------------------------------------------------------|



************************************

| ~    Vibrato
| b    Bend
| p    Pull-off
| /    Slide up
| h    Hammer-on
| (n)  Ghost note
| r    Release
 

************************************
Suggest correction
comments
print report bad tab
guest
You may want to rate the tab now too:
select rating
Wanna post a correction for this tab? Suggest correction