Oops, an error
Loading. Please wait.

Animal Magnetism Tab

version 2
version 2

Whole song

2,195 views 6 this week
no commentswrite comment
1 2 3 4 5
accurate
x 3
add to favorites
launch autoscroll
font size
0
reset
how to read this tab
guitar tuner
Autoscroll
slow
fast
+/-
esc
set tempo
stop
Help us to improve Ultimate-Guitar.com Take our survey!
×
Animal Magnetism
Scorpions
Frome Album:Animal Magnetism

Intro
PART 1
E|-------------------------------------------------------------|
A|-------------------------------------------------------------|
D|----4----------4-4-4/5-----4----------4-4-4/5--5-5-5-5/6-5-4-|
G|----------5-4---------------------5-4------------------------|
B|-------------------------------------------------------------|
e|-------------------------------------------------------------|


PARTE 2

E|------------------------------------------------------------------------|
A|------------------------------------------------------------------------|
D|---4-4-4-5---4-4-4-4-4-5---4-4-4-4-4-5—4-4—0-1-2-3-1-3-----5-5-5-5-4-5--|
G|------------------------------------------------------------------------|
B|------------------------------------------------------------------------|
e|------------------------------------------------------------------------|


USE A PARTE 2 DA INTRODUÇÃO DURANTE A ESTROFE......................

DURANTE O REFRÃO USE :

        G    F#  G   F#   A      A   G  F#
E|---------------------------------------------------------|
A|----10------9---10---9--12-----12--10---9----------------|
D|----12-----11---12--11--14-----14--12--11----------------|
G|----12-----11---12--11--14-----14--12--11----------------|
B|---------------------------------------------------------|
e|---------------------------------------------------------|


O SOLO É :

E|----------------------------------------------------------------------------------------|
A|----------------------------------------------------------------------------------------|
D|----------------------------------------------------------------------------------------|
G|----------------------------------------------------------------------------------------|
B|--14-14-14-14-14-14-14--14-15-16/17--17--13-14-13p14----14---12-11-12---9-10-9--10-9-7--|
e|----------------------------------------------------------------------------------------|

E|------------------------------------------------------------------------------------------|
A|------------------------------------------------------------------------------------------|
D|------------------------------------------------------------------------------------------|
G|------------------------------------------------------------------------------------------|
B|--15-14-15-14-15-14-15/17--14-15-16/17--17--13-14-13p14--14--12-11-12--14-12-11--12-11--9-|
e|------------------------------------------------------------------------------------------|
Suggest correction
Give kudos to tab author, rate the tab!
1 2 3 4 5
comments
print report bad tab
guest
You may want to rate the tab now too:
select rating
Wanna post a correction for this tab? Suggest correction