Oops, an error
Loading. Please wait.

Bad Boys Running Wild Bass Tab

version 2
version 2

Whole song

Interactive

2,293 views 1 this week
no commentswrite comment
1 2 3 4 5
x 9
add to favorites
launch autoscroll
font size
0
reset
guitar tuner
Autoscroll
slow
fast
+/-
esc
set tempo
stop
Help us to improve Ultimate-Guitar.com Take our survey!
×
bad boys running wild from "love at first sting"

Intro:
G|-----|-----------------------|
D|-----|-----------------0-0-2-|
A|-----|------------------3----|
E|-0-0-|-0-00-0-00-0-00-0------|

Verse:
G|-------------------------------------------------------------------|
D|---------0-00-0---------------------------------0-00-0-------------|
A|---------------3-2-0-00-0-0-3-33-3-2-0----------------3-2-0-00-0-0-|
E|-0-00-0-0----------------3------------3-0-00-0-0----------------3--|

G|------------------------------------------|
D|--------------------0-0-0-----------------|
A|-3-333-2-2-3>>-----3-----3--3-3-3-3-3-3-3-|
E|--------------3-3-3-----------------------|

Chorus:
G|------------------------------------------------------------------------------|
D|-2--0-2-0-2-------0-0-0-0-0-0-0---------------2--0-2-0-2------0000000---------|
A|-----------0-------------------3-3-3-3-3-3-3-3----------0------------33333333-|
E|------------3--3-3---------------------------------------3-3-3----------------|

Bridge:
G|---------------------------------------------------------------------------|
D|-2-22-2-2-0-00-0-0-----------------2-22-2-2-0-00-0-0-----------------------|
A|------------------0-00-0-0-333-22-2-----------------0-00-0-033322233333333-|
E|---------------------------------------------------------------------------|
						Ending:
G|----------------------------|----------------------|
D|-------0-0-0----------------|-2-0-2-0----2-0-2-0-2-|
A|------3-----3-3-3-3-3-3-3-3-|--------3-------------|
E|-3-3-3----------------------|----------------------|
Suggest correction
comments
print report bad tab
guest
You may want to rate the tab now too:
select rating
Wanna post a correction for this tab? Suggest correction