Oops, an error
Loading. Please wait.

Big City Nights Bass Tab

version 1
version 1

Whole song

7,421 views 12 this week
2 commentsread comments
1 2 3 4 5
worth learning
x 4
add to favorites
launch autoscroll
font size
0
reset
guitar tuner
Autoscroll
slow
fast
+/-
esc
set tempo
stop
Help us to improve Ultimate-Guitar.com Take our survey!
×
Author
Difficulty
novice
Its really easy

Verse/solo/chorus
------------------------------------------------------|
------------------------------------------------------|
---------------------------------3-0-3-3----5-0-5-5---|
--------5-0-5-5---1-0-1-1-----------------------------|

there is no...

-----------------------------------------------------------|
-----------------------------------------------------------|
-----------------------3-------2--------------------3----5-|
-------0-------3---------------------3-2-0-----3-----------|

like I said it's easy

tabbed by:bassist87
Suggest correction
comments
print report bad tab
2 comments total.
0 reply
smutenhead 10 wrote on July 14 2009, 05:42 pm

better read your white pages.

0 reply
Gravekeep 10 wrote on April 21 2012, 03:58 pm

Have you ever listened to this song? Might want to get your ears checked.

guest
You may want to rate the tab now too:
select rating
Please do not post tabs as comments. Select "correction" instead!