Oops, an error
Loading. Please wait.

Big City Nights Tab

version 1
version 1
59,416 views 108 this week
7 commentsread comments
1 2 3 4 5
x 16
add to favorites
launch autoscroll
font size
0
reset
how to read this tab
guitar tuner
backing track
0:00
0:00
×
Best way to learn
"Big City Nights"
Autoscroll
slow
fast
+/-
esc
set tempo
stop
[Intro]
(Riff A)
e|------------------------------------------------8--8--8--8--8--8|
B|------------------------------------------------8--8--8--8--8--8|
G|-------------------5--5--4--2-------------------5--5--5--5--5--4|
D|------7--7-----7---3--3--2--0--5---5--5-----5-------------------|
A|------7--7--8--7---------------3---5--5--7--5-------------------|
E|---5--5--5--5--5-------------------3--3--3--3-------------------|
          p.m.--|                      p.m.--|

[Verse 1]
(Riff B)
"When the day light...."
e|-------------------------------------------------------|
B|-------------------------------------------------------|
G|-----------------------------5-----5--5---7-----7--7---|
D|---7-----7--7---3-----3--3---5-----5--5---7-----7--7---|
A|---7-----7--7---3-----3--3---3--x--3--3---5--x--5--5---|
E|---5--x--5--5---1--x--1--1-----------------------------|

e|-------------------------------------------------------|
B|-------------------------------------------------------|
G|-----------------------------5-----5--5---9-----9--9---|
D|---7-----7--7---3-----3--3---5-----5--5---9-----9--9---|
A|---7-----7--7---3-----3--3---3--x--3--3---7--x--7--7---|
E|---5--x--5--5---1--x--1--1-----------------------------|

e|------------------|
B|------------------|
G|------------------|
D|---2--2-----------|
A|---2--2-----------|
E|---0--0-----------|

[Chorus] 
"Big city, big city nights"
(Riff A) (x4)
e|------------------------------------------------8--8--8--8--8--8|
B|------------------------------------------------8--8--8--8--8--8|
G|-------------------5--5--4--2-------------------5--5--5--5--5--4|
D|------7--7-----7---3--3--2--0--5---5--5-----5-------------------|
A|------7--7--8--7---------------3---5--5--7--5-------------------|
E|---5--5--5--5--5-------------------3--3--3--3-------------------|
          p.m.--|                      p.m.--|

[Verse 2] 
(Riff B)
"When the day light...."
e|-------------------------------------------------------|
B|-------------------------------------------------------|
G|-----------------------------5-----5--5---7-----7--7---|
D|---7-----7--7---3-----3--3---5-----5--5---7-----7--7---|
A|---7-----7--7---3-----3--3---3--x--3--3---5--x--5--5---|
E|---5--x--5--5---1--x--1--1-----------------------------|

e|-------------------------------------------------------|
B|-------------------------------------------------------|
G|-----------------------------5-----5--5---9-----9--9---|
D|---7-----7--7---3-----3--3---5-----5--5---9-----9--9---|
A|---7-----7--7---3-----3--3---3--x--3--3---7--x--7--7---|
E|---5--x--5--5---1--x--1--1-----------------------------|

e|------------------|
B|------------------|
G|------------------|
D|---2--2-----------|
A|---2--2-----------|
E|---0--0-----------|

[Bridge]
e|---8--8--8--8--8--8---8--8--8--8--8--8-------------|
B|---8--8--8--8--8--8---8--8--8--8--8--8-------------|
G|---5--5--5--5--5--4---5--5--5--5--5--4-------------|
D|---------------------------------------------------|
A|---------------------------------------------------|
E|-----------------------------------------3--2--0---|

"There is no..... "
e|-------|-------|-------|-------|-------------|
B|-------|-------|-------|-------|-------------|
G|-------|-------|---5---|---4---|-------------|
D|---2---|---5---|---5---|---4---|-------------|
A|---2---|---5---|---3---|---2---|-------------|
E|---0---|---3---|-------|-------|---3--2--0---|

e|--------------|
B|--------------|
G|---7----------|
D|---7----------|
A|---5----------|
E|--------------|

[Solo]
(Riff A)
e|------------------------------------------------8--8--8--8--8--8|
B|------------------------------------------------8--8--8--8--8--8|
G|-------------------5--5--4--2-------------------5--5--5--5--5--4|
D|------7--7-----7---3--3--2--0--5---5--5-----5-------------------|
A|------7--7--8--7---------------3---5--5--7--5-------------------|
E|---5--5--5--5--5-------------------3--3--3--3-------------------|
          p.m.--|                      p.m.--|

(Riff B) (x2)
e|-------------------------------------------------------|
B|-------------------------------------------------------|
G|-----------------------------5-----5--5---7-----7--7---|
D|---7-----7--7---3-----3--3---5-----5--5---7-----7--7---|
A|---7-----7--7---3-----3--3---3--x--3--3---5--x--5--5---|
E|---5--x--5--5---1--x--1--1-----------------------------|

e|-------------------------------------------------------|
B|-------------------------------------------------------|
G|-----------------------------5-----5--5---9-----9--9---|
D|---7-----7--7---3-----3--3---5-----5--5---9-----9--9---|
A|---7-----7--7---3-----3--3---3--x--3--3---7--x--7--7---|
E|---5--x--5--5---1--x--1--1-----------------------------|

e|------------------|
B|------------------|
G|------------------|
D|---2--2-----------|
A|---2--2-----------|
E|---0--0-----------|

[Outro]
(Riff A)
e|------------------------------------------------8--8--8--8--8--8|
B|------------------------------------------------8--8--8--8--8--8|
G|-------------------5--5--4--2-------------------5--5--5--5--5--4|
D|------7--7-----7---3--3--2--0--5---5--5-----5-------------------|
A|------7--7--8--7---------------3---5--5--7--5-------------------|
E|---5--5--5--5--5-------------------3--3--3--3-------------------|
          p.m.--|                      p.m.--|


************************************

| x  Dead note

************************************
Suggest correction
comments
print report bad tab
7 comments total. Showing first comments.
0 reply
duddits 10 Dec 13, 2006 06:23 PM

wheres the solo

-1 reply
ckyskater419 10 May 29, 2007 08:14 PM

7
3
is kinda hard to play...but i can do it :D

0 reply
Metallica_Man55 392 Aug 10, 2007 05:34 PM

great tab man, didn't quite nail the intro solo though. I'm sending in mine now, and hopefully it'll get accepted.

guest
You may want to rate the tab now too:
select rating
Wanna post a correction for this tab? Suggest correction