Oops, an error
Loading. Please wait.

Cant Get Enough Tab

2,213 views 3 this week
no commentswrite comment
1 2 3 4 5
please rate
add to favorites
launch autoscroll
font size
0
reset
how to read this tab
guitar tuner
Autoscroll
slow
fast
+/-
esc
set tempo
stop
Help us to improve Ultimate-Guitar.com Take our survey!
×
Author
Difficulty
Binbags 5,673
advanced
Band:  Scorpions
Album: Lovedrive
Song:  Can't Get Enough

Copyright (c)  (RCA) (1979)
Version 1.0 - (28/06/06)



.  - palm mute           /  - slide up to
\  - slide down to       ~  - vibrato
h  - hammer on           b  - Bend
p  - pull off            Suffixes for bend
t  - tap                 f  - full bend    h - half bend
ph - pinched harmonic    q  - quarter bend t - tap bend
                         p  - pre bend
*  - see comment         ^  - Hold bend    r release bend
x  - Stuccatto           ~  - vibrato bend
,  - slight palm mute    () - ghost note, sustained note
"  - tremolo note        <> - harmonic

Tuning E A D G B E

 Main Riff
    h
|-----------------------------------------------------------|
|-------------------------------------------7p5-7p5-7p5-7p5-|
|-5-------------5-------------5-------------7p5-7p5-7p5-7p5-|
|-5-7---7-7-7-7-5-7---7-7-7-7-5-7---7-7-7-7-----------------|
|-----000-0-0-0-----000-0-0-0-----000-0-0-0-----------------|
|-----------------------------------------------------------| Rpt 4 X


 Verse

 Guitar 1
  [--------------PM---------------] ~~~~~~~~~
[--------------------------------------------|
[--------------------------------------------|
[--------------------------------------------|
[-5-7--------5-7--------5-7------------------|
[-0-0-00-000-0-0-00-000-0-0-00-000-3--2------|
[----------------------------------------3---| 
[Guitar 1
[ [--------------PM---------------] ~~~~~~~~~
[--------------------------------------------|
[--------------------------------------------|
[--------------------------------------------|
[-0-2--------0-2--------0-2------------------|
[-0-0-00-000-0-0-00-000-0-0-00-000-3--2------|
[----------------------------------------3---| Rpt

 Chorus

|------------------------------------------|
|------------------------------------------|
|------------------------------------------|
|------------------------------------------|
|-2-----------------(2)------------------2-|
|-0-----------------(0)------------------0-|

 Rpt Main Riff 4 X
 Rpt Verse

 Last time

 Guitar 1
  [--------------PM---------------] ~~~~~~~~~
[--------------------------------------------|
[--------------------------------------------|
[--------------------------------------------|
[-5-7--------5-7--------5-7------------------|
[-0-0-00-000-0-0-00-000-0-0-00-000-3--2------|
[----------------------------------------3---| 
[Guitar 1
[ [--------------PM---------------] ~~~~~~~~~
[--------------------------------------------|
[--------------------------------------------|
[----------------------------------5--4------|
[-0-2--------0-2--------0-2--------------5---|
[-0-0-00-000-0-0-00-000-0-0-00-000-----------|
[--------------------------------------------| 

 Rpt Chorus

 Rpt Main Riff 8 X for backing for guitar solo

 Guitar solo

    h
|--------------------------------------------|
|-5-8p-5-trill and depress trem and pull up--|
|--------------------------------------------|
|--------------------------------------------|
|--------------------------------------------|
|--------------------------------------------|


|-------------------------------------------------------------|
|-------------------------------------------------------------|
|-5-pull up-depress trem-5-pull up-depress trem-pull up-5-----|
|---------------------------------------------------------7p5-|
|-------------------------------------------------------------|
|-------------------------------------------------------------|

                  ~~~~
|-----------------------------------------------------------------------|
|-----------------------------------------------------------------------|
|-5-7-7b--r--p5-0--------/7fb hold and trem pick gradually releasing-7\-|
|-----------------------------------------------------------------------|
|-----------------3--p0-------------------------------------------------|
|-----------------------------------------------------------------------|

  [PM]ph   [-PM-]   ~~          ~~~~~~~~~               ~~~~
|-------------------------------------------------------------|
|------------------13--15--13--15fb------15fbr15-13-----------|
|-2-0------2-0-----12b------------------------------14-14b--\-|
|--------------0----------------------------------------------|
|-----3b---------3--------------------------------------------|
|-------------------------------------------------------------|


|----------------------------------------------------------------|
|----8-8-8-------8-8---------------------------------------------|
|-/9--------9---------9\-----12-14fb--14fb--16fb-16b16b-16p14p12-|
|------------------------/14-------------------------------------|
|----------------------------------------------------------------|
|----------------------------------------------------------------|

          ~~~~~~~~~~~~~~~~~~~
|--------15fb----------------|
|----------------------------|
|-----12---------------------|
|-/14------------------------|
|----------------------------|
|----------------------------|


 Rpt Verse and chorus

 Rpt Main Riff to fade

 Outro guitar solo

|-----15-12-----15-12-----15-12-----15-12-----15-12-----15-12-------|
|-15b-------15b-------15b-------15b-------15b-------15b-------15b---|
|-------------------------------------------------------------------|
|-------------------------------------------------------------------|
|-------------------------------------------------------------------|
|-------------------------------------------------------------------|

                       ~~~~~~~~~~~~
|--15-12-----15-12----17fb---------17b17b17br---------------|
|--------15b-------15-------------------------13-trem dive--|
|-----------------------------------------------------------|
|-----------------------------------------------------------|
|-----------------------------------------------------------|
|-----------------------------------------------------------|


|----------------------------------------------------------------------|
|--------------------------------------------------------131313131313\-|
|-<5><5><5><5><5><5>-<5><5><5><5><5><5><5><5>-trem dive-/141414141414\-|
|-------------------4--------------------------------------------------|
|----------------------------------------------------------------------|
|----------------------------------------------------------------------|

                                            ~~~~~~~~~~       ~~~~~~~~
|-------------------------------------1515-15fb-------------20fb-----|
|--------------------------------------------------------------------|
|-<5><5><5><5><5><5><5><5><5><5><5><5>---------------<5>-------------|
|-------------------------------------------------------<5>----------|
|--------------------------------------------------------------------|
|--------------------------------------------------------------------|

                                            ~~~~~~~~~~~
|-20fb-20fb-20fb-20fb---slow trem dive---20fb----------17----17--|
|---------------------------------------------------------20-----|
|----------------------------------------------------------------|
|----------------------------------------------------------------|
|----------------------------------------------------------------|
|----------------------------------------------------------------|


END

Suggest correction new What's this?
You can suggest a correction to this tab. Community and Mods will review your correction and vote to approve or reject it.
comments
We did not receive enough feedback on this tab! Please rate:
print report bad tab
1 2 3 4 5
guest
You may want to rate the tab now too:
select rating
Please do not post tabs as comments. Select "correction" instead!