Oops, an error
Loading. Please wait.

Coming Home tab

version 3
version 3

Whole song

Interactive

296 views 1 this week
no commentswrite comment
1 2 3 4 5
x 3
add to favorites
×
Save as Personal and add changes to this tab that will be seen only by you. Learn more ›
×
You can save this tab as Personal to edit and correct it or add notes. All changes will be seen only by you. Learn more »
launch autoscroll
font size
0
reset
how to read this tab
guitar tuner
edit
Autoscroll
slow
fast
+/-
esc
set tempo
stop
Author
Difficulty
[Intro]

e|---------------------------------------------------------------------------|
B|-----------------------------------------------13b15--12-------------------|
G|--6/7--6--7--9--9/11--9--11--12--12/14--12-------------------12h14---------|
D|--------------------------------------------14-----------14----------------|
A|---------------------------------------------------------------------------|
E|---------------------------------------------------------------------------|

 lead guitar
e|---------------------------------------------------------------------------|
B|--8-x-8-8--7--8-x-8-8--7--8-x-8-8--7--8~~----7~~---------------------------|
G|--9-x-9-9--7--9-x-9-9--7--9-x-9-9--7--9~~----7~~---------------------------|
D|---------------------------------------------------------------------------|
A|---------------------------------------------------------------------------|
E|---------------------------------------------------------------------------|
 |
 rhythm guitar
e|---------------------------------------------------------------------------|
B|---------------------------------------------------------------------------|
G|--9-x-9-9--7--5-x-5-5-5/7--7-x-7-7--7/4-x-4-4--4---------------------------|
D|--9-x-9-9--7--5-x-5-5-5/7--7-x-7-7--7/4-x-4-4--4---------------------------| 
A|--7-x-7-7--5--3-x-3-3-3/5--5-x-5-5--5/2-x-2-2--2---------------------------|
E|---------------------------------------------------------------------------|


 lead guitar
e|---------------------------------------------------------------------------|
B|--8-x-8-8--7--8-x-8-8--7--8-x-8-8--7--/12~~~~~-----------------------------|
G|--9-x-9-9--7--9-x-9-9--7--9-x-9-9--7--/11~~~~~-----------------------------|
D|---------------------------------------------------------------------------|
A|---------------------------------------------------------------------------|
E|---------------------------------------------------------------------------|
 |
 rhythm guitar
e|---------------------------------------------------------------------------|
B|---------------------------------------------------------------------------|
G|--9-x-9-9--7--5-x-5-5-5/7--7-x-7-7--7/4-x-4-4--4---------------------------|
D|--9-x-9-9--7--5-x-5-5-5/7--7-x-7-7--7/4-x-4-4--4---------------------------| 
A|--7-x-7-7--5--3-x-3-3-3/5--5-x-5-5--5/2-x-2-2--2---------------------------|
E|---------------------------------------------------------------------------|

 lead guitar
e|---------------------------------------------------------------------------|
B|--8-x-8-8--7--8-x-8-8--7--8-x-8-8------7h10p7--------8---------------------|
G|--9-x-9-9--7--9-x-9-9--7--9-x-9-9--7*---------10-9-7---8~~-----------------|
D|---------------------------------------------------------------------------|
A|---------------------------------------------------------------------------|
E|---------------------------------------------------------------------------|
 |
 rhythm guitar
e|---------------------------------------------------------------------------|
B|---------------------------------------------------------------------------|
G|--9-x-9-9--7--5-x-5-5-5/7--7-x-7-7--7/4-x-4-4--4---------------------------|
D|--9-x-9-9--7--5-x-5-5-5/7--7-x-7-7--7/4-x-4-4--4---------------------------| 
A|--7-x-7-7--5--3-x-3-3-3/5--5-x-5-5--5/2-x-2-2--2---------------------------|
E|---------------------------------------------------------------------------|

  lead guitar
e|-----------------------------------12----------12-------12-------12------------------------|
B|--8-x-8-8--7--8-x-8-8--7--------12----12--15b17----15b17----15b17----15p12-----------------|
G|--9-x-9-9--7--9-x-9-9--7--14b16--------------------------------------------14--14b16p12----|
D|----------------------------------------------------------------------------------------14-|
A|-------------------------------------------------------------------------------------------|
E|-------------------------------------------------------------------------------------------|
 |
 rhythm guitar
e|---------------------------------------------------------------------------|
B|---------------------------------------------------------------------------|
G|--9-x-9-9--7--5-x-5-5-5/7--7-x-7-7--7/4-x-4-4--4---------------------------|
D|--9-x-9-9--7--5-x-5-5-5/7--7-x-7-7--7/4-x-4-4--4---------------------------| 
A|--7-x-7-7--5--3-x-3-3-3/5--5-x-5-5--5/2-x-2-2--2---------------------------|
E|---------------------------------------------------------------------------|


[Verse]

 lead guitar
   P.M - - - - - - - - - - - - - - - - - - - - - - - - -|
e|---------------------------------------------------------------------------|
B|---------------------------------------------------------------------------|
G|---------------------------------------------------------------------------|
D|---------------------------------------------------------------------------|
A|--7-7-7-7--7-7-7-7--7-7-7-7--7-7-7-7--7-7-7-7--7-7-7-7----2*~~-------------|
E|---------------------------------------------------------------------------|
 |
 rhythm guitar
e|---------------------------------------------------------------------------|
B|---------------------------------------------------------------------------|
G|--9-----------------------------------5-------------------4----------------|
D|--9-----------------------------------5-------------------4----------------|
A|--7-----------------------------------3-------------------2----------------|
E|---------------------------------------------------------------------------|

 lead guitar
   P.M - - - - - - - - - - - - - - - - - - - - - - - - -| 
e|---------------------------------------------------------------------------|
B|---------------------------------------------------------------------------|
G|-----------------------x-4*b5p0--------------------4~~t9*------------------| 
D|---------------------------------------------------------------------------| 
A|--7-7-7-7--7-7-7-7--7-----------3-3-3-3--3-3-3-3---------------------------|
E|---------------------------------------------------------------------------|
 |
 rhythm guitar
e|---------------------------------------------------------------------------|
B|---------------------------------------------------------------------------|
G|--9-----------------------------------5-------------------4----------------|
D|--9-----------------------------------5-------------------4----------------|
A|--7-----------------------------------3-------------------2----------------|
E|---------------------------------------------------------------------------|

 Both guitars
e|---------------------------------------------------------------------------|
B|---------------------------------------------------------------------------|
G|--2b4--2---2--2b4r2--------------------------------------------------------|
D|---------------------4-----------------------------------------------------|
A|---------------------------------------------------------------------------|
E|---------------------------------------------------------------------------|


 lead guitar
e|---------------------------------------------------------------------------|
B|--8-x-8-8--7--8-x-8-8--7--8-x-8-8--8-8-7h8p7-------------------------------|
G|--9-x-9-9--7--9-x-9-9--7--9-x-9-9------------9-7---------------------------|
D|-------------------------------------------------9-8-7---------------------|
A|-------------------------------------------------------7-------------------|
E|---------------------------------------------------------------------------|
 |
 rhythm guitar
e|---------------------------------------------------------------------------|
B|---------------------------------------------------------------------------|
G|--9-x-9-9--7--5-x-5-5-5/7--7-x-7-7--7/4-x-4-4--4---------------------------|
D|--9-x-9-9--7--5-x-5-5-5/7--7-x-7-7--7/4-x-4-4--4---------------------------| 
A|--7-x-7-7--5--3-x-3-3-3/5--5-x-5-5--5/2-x-2-2--2---------------------------|
E|---------------------------------------------------------------------------|


  lead guitar
e|---------------------------------------------------------------------------|
B|--8-x-8-8--7--8-x-8-8--8-8--7h10p7----------8h12p8--------10---8-----------|
G|--9-x-9-9--7--9-x-9-9--9-9---------10-9-7----------11-9-7------------------|
D|------------------------------------------9------------------9---9br-------|
A|---------------------------------------------------------------------------|
E|---------------------------------------------------------------------------|
 |
 rhythm guitar
e|---------------------------------------------------------------------------|
B|---------------------------------------------------------------------------|
G|--9-x-9-9--7--5-x-5-5-5/7--7-x-7-7--7/4-x-4-4--4---------------------------|
D|--9-x-9-9--7--5-x-5-5-5/7--7-x-7-7--7/4-x-4-4--4---------------------------| 
A|--7-x-7-7--5--3-x-3-3-3/5--5-x-5-5--5/2-x-2-2--2---------------------------|
E|---------------------------------------------------------------------------|


  lead guitar
e|---------------------------------------------------------------------------|
B|--8-x-8-8--7--8-x-8-8--7-------7-8------7-8------7-8----7-8------7---------|
G|--9-x-9-9--7--9-x-9-9--7--9b11-----9b11------9b11---9b11----9b11-----------|
D|---------------------------------------------------------------------------|
A|---------------------------------------------------------------------------|
E|---------------------------------------------------------------------------|
 |
 rhythm guitar
e|---------------------------------------------------------------------------|
B|---------------------------------------------------------------------------|
G|--9-x-9-9--7--5-x-5-5-5/7--7-x-7-7--7/4-x-4-4--4---------------------------|
D|--9-x-9-9--7--5-x-5-5-5/7--7-x-7-7--7/4-x-4-4--4---------------------------| 
A|--7-x-7-7--5--3-x-3-3-3/5--5-x-5-5--5/2-x-2-2--2---------------------------|
E|---------------------------------------------------------------------------|


  lead guitar
e|--------------------------7h8p7--------------------------------------------|
B|--8-x-8-8--7--8-x-8-8--7--------10-8-7---7h8p7-----------------------------|
G|--9-x-9-9--7--9-x-9-9------------------9-------9-7-------------------------|
D|---------------------------------------------------9-8-7----7--------------|
A|---------------------------------------------------------10---10-----------|
E|---------------------------------------------------------------------------|
 |
 rhythm guitar
e|---------------------------------------------------------------------------|
B|---------------------------------------------------------------------------|
G|--9-x-9-9--7--5-x-5-5-5/7--7-x-7-7--7/4-x-4-4--4---------------------------|
D|--9-x-9-9--7--5-x-5-5-5/7--7-x-7-7--7/4-x-4-4--4---------------------------| 
A|--7-x-7-7--5--3-x-3-3-3/5--5-x-5-5--5/2-x-2-2--2---------------------------|
E|---------------------------------------------------------------------------|


[Verse 2]

  lead guitar
e|---------------------------------------------------------------------------|
B|---------------------------------------------------------------------------|
G|---------------------------------------------------------------------------|
D|---------------------------------------------------------------------------|
A|--7-7-7-7--7-7-7-7--7-7-7-7--7-7-7-7--7-7-7-7--7-7-7-7----2*~~-------------|
E|---------------------------------------------------------------------------|
 | P.M - - - - - - - - - - - - - - - - - - - - - - - - -|
 rhythm guitar
e|---------------------------------------------------------------------------|
B|---------------------------------------------------------------------------|
G|--9-----------------------------------5-------------------4----------------|
D|--9-----------------------------------5-------------------4----------------|
A|--7-----------------------------------3-------------------2----------------|
E|---------------------------------------------------------------------------|

  lead guitar
e|---------------------------------------------------------------------------|
B|---------------------------------------------------------------------------|
G|-----------------------x-4*b5p0--------------------4~~t9*------------------| 
D|---------------------------------------------------------------------------|  
A|--7-7-7-7--7-7-7-7--7-----------3-3-3-3--3-3-3-3---------------------------| 
E|---------------------------------------------------------------------------|  
 | P.M - - - - - - - - - - - - - - - - - - - - - - - - -|                       
 |rhythm guitar                                                                      
e|---------------------------------------------------------------------------|
B|---------------------------------------------------------------------------|
G|--9-----------------------------------5-------------------4----------------|
D|--9-----------------------------------5-------------------4----------------|
A|--7-----------------------------------3-------------------2----------------|
E|---------------------------------------------------------------------------|

  Both guitars
e|-------------------------------------|
B|-------------------------------------|
G|--2b4--2---2--2b4r2------------------|
D|---------------------4---------------|
A|-------------------------------------|
E|-------------------------------------|
   We go wherever you like, to ROCK AND ROll!

[Solo]

  lead guitar
e|---------12-------12-------12-------12-------12-------12-------12-------------------------------|
B|---15b17----15b17----15b17----15b17----15b17----15b17----15b17-----13*b15-13*b15-13*b15-13*b15--|
G|------------------------------------------------------------------------------------------------|
D|-0----------------------------------------------------------------------------------------------|
A|------------------------------------------------------------------------------------------------|
E|------------------------------------------------------------------------------------------------|
 |
 rhythm guitar
e|---------------------------------------------------------------------------|
B|---------------------------------------------------------------------------|
G|--9-x-9-9--7--5-x-5-5-5/7--7-x-7-7--7/4-x-4-4--4---------------------------|
D|--9-x-9-9--7--5-x-5-5-5/7--7-x-7-7--7/4-x-4-4--4---------------------------| 
A|--7-x-7-7--5--3-x-3-3-3/5--5-x-5-5--5/2-x-2-2--2---------------------------|
E|---------------------------------------------------------------------------|

 lead guitar
e|----------------------------------------------------------------7-----------------------------------------|
B|-13*b15-13*b15-13*p12-11-10*-11h12p11-12-11-15-12\11--------------10p8p7------------------12---12-14b-12\-|
G|-----------------------------------------------------12\11-9\7-----------9-7---7----------12---12-14b-12\-|
D|-----------------------------------------------------------------------------9---9p8p7-------14-----------|
A|---------------------------------------------------------------------------------------10-----------------|
E|----------------------------------------------------------------------------------------------------------|
 |
 rhythm guitar
e|---------------------------------------------------------------------------|
B|---------------------------------------------------------------------------|
G|--9-x-9-9--7--5-x-5-5-5/7--7-x-7-7--7/4-x-4-4--4---------------------------|
D|--9-x-9-9--7--5-x-5-5-5/7--7-x-7-7--7/4-x-4-4--4---------------------------| 
A|--7-x-7-7--5--3-x-3-3-3/5--5-x-5-5--5/2-x-2-2--2---------------------------|
E|---------------------------------------------------------------------------|

  lead guitar
e|------------------------------------------------------------------------------------------------|
B|-------------------------------------------------------------------------------------15*b17-----|
G|----------------------------------------------2b4-2*b4-2*b4-2*b4r2------------------------------|
D|--2-----------------0h2p0h2p0h2p0h2p0h2p-2p0----------------------------------------------------|
A|----------0h2-2*-2------------------------------------------------------------------------------|
E|----0h3p0---------------------------------------------------------------------------------------|
 |
 rhythm guitar
e|---------------------------------------------------------------------------|
B|---------------------------------------------------------------------------|
G|--9-x-9-9--7--5-x-5-5-5/7--7-x-7-7--7/4-x-4-4--4---------------------------|
D|--9-x-9-9--7--5-x-5-5-5/7--7-x-7-7--7/4-x-4-4--4---------------------------| 
A|--7-x-7-7--5--3-x-3-3-3/5--5-x-5-5--5/2-x-2-2--2---------------------------|
E|---------------------------------------------------------------------------|

  lead guitar
e|-12-----------12-----------12--15p12-15p12-----12-------12-----------12---------------|
B|----15p12---------15p12---------------------15----15b17----15p12--------15p12----12---|
G|----------14b-----------14b--------------------------------------14b----------14b-----|
D|--------------------------------------------------------------------------------------|
A|--------------------------------------------------------------------------------------|
E|--------------------------------------------------------------------------------------|
 
  lead guitar continued...
e|--------------------------------|
B|-15-14-12-15-14-12-14-12-12~~~~-|
G|-15-14-12-15-14-12-14-12-12~~~~-|
D|--------------------------------|
A|--------------------------------|
E|--------------------------------|
 |
 rhythm guitar
e|---------------------------------------------------------------------------|
B|---------------------------------------------------------------------------|
G|--9-x-9-9--7--5-x-5-5-5/7--7-x-7-7--7/4-x-4-4--4---------------------------|
D|--9-x-9-9--7--5-x-5-5-5/7--7-x-7-7--7/4-x-4-4--4---------------------------| 
A|--7-x-7-7--5--3-x-3-3-3/5--5-x-5-5--5/2-x-2-2--2---------------------------|
E|---------------------------------------------------------------------------|

  lead guitar
e|---------14-15-17-17b19----------------19------19-22--19-22b24-22b24-\-----| 
B|------17----------------------19h20h22----20-------------------------\-----|
G|--/19----------------------------------------------------------------\-----|
D|---------------------------------------------------------------------------|
A|---------------------------------------------------------------------------|
E|---------------------------------------------------------------------------|
 | 
 rhythm guitar
e|---------------------------------------------------------------------------|
B|---------------------------------------------------------------------------|
G|---------------7-x-7--7-7--7-x-7--7-7--4-4-4-4-4-4-4-4--4\-----------------|
D|--5-x-5--5-5---7-x-7--7-7--7-x-7--7-7--4-4-4-4-4-4-4-4--4\-----------------| 
A|--5-x-5--5-5---5-x-5--5-5--5-x-5--5-5--2-2-2-2-2-2-2-2--2\-----------------|
E|--3-x-3--3-3---------------------------------------------------------------|

[Bridge]

  lead guitar
e|---------------------------------------------------------|
B|---------------------------------------------------------|
G|----------------------------4-x-4--4-4-------7---7-7-----|
D|--4-x-4--4-4---7-x-7--7-7---4-x-4--4-4-------7---7-7-----|
A|--4-x-4--4-4---7-x-7--7-7---2-x-2--2-2---7h9---9---------|
E|--2-x-2--2-2---5-x-5--5-5--------------------------------|
 |
 rhythm guitar
e|---------------------------------------------------------|
B|---------------------------------------------------------|
G|----------------------------4-x-4--4-4---7-x-7--7-7------|
D|--4-x-4--4-4---7-x-7--7-7---4-x-4--4-4---7-x-7--7-7------|
A|--4-x-4--4-4---7-x-7--7-7---2-x-2--2-2---5-x-5--5-5------|
E|--2-x-2--2-2---5-x-5--5-5--------------------------------|

  lead guitar
e|---------------------------------------------------------|
B|-----------------------------------------8-8-8-8-8-7/----|
G|----------------------------4-x-4--4-4---7-7-7-7-7-7/----|
D|--4-x-4--4-4---7-x-7--7-7---4-x-4--4-4---7-7-7-7-7-7/----|
A|--4-x-4--4-4---7-x-7--7-7---2-x-2--2-2-------------------|
E|--2-x-2--2-2---5-x-5--5-5--------------------------------|
 |
 rhythm guitar
e|---------------------------------------------------------|
B|---------------------------------------------------------|
G|----------------------------4-x-4--4-4---7-x-7--7-7------|
D|--4-x-4--4-4---7-x-7--7-7---4-x-4--4-4---7-x-7--7-7------|
A|--4-x-4--4-4---7-x-7--7-7---2-x-2--2-2---5-x-5--5-5------|
E|--2-x-2--2-2---5-x-5--5-5--------------------------------|

  lead guitar
e|---------------------------------------------------------|
B|-----------------------------------------7-----7---------|
G|----------------------------4-x-4--4-4---9b11--9b11r9-7\-|
D|--4-x-4--4-4---7-x-7--7-7---4-x-4--4-4-------------------|
A|--4-x-4--4-4---7-x-7--7-7---2-x-2--2-2-------------------|
E|--2-x-2--2-2---5-x-5--5-5--------------------------------|
 |
 rhythm guitar
e|---------------------------------------------------------|
B|---------------------------------------------------------|
G|----------------------------4-x-4--4-4---7-x-7--7-7------|
D|--4-x-4--4-4---7-x-7--7-7---4-x-4--4-4---7-x-7--7-7------|
A|--4-x-4--4-4---7-x-7--7-7---2-x-2--2-2---5-x-5--5-5------|
E|--2-x-2--2-2---5-x-5--5-5--------------------------------|

  Both guitars
e|---------------------------------------------------------|
B|---------------------------------------------------------|
G|--4-x-4--4-4---4-x-4--4-4---6-x-6--6-6---6-x-6--6-6------|
D|--4-x-4--4-4---4-x-4--4-4---6-x-6--6-6---6-x-6--6-6------|
A|--2-x-2--2-2---2-x-2--2-2---4-x-4--4-4---4-x-4--4-4------|
E|---------------------------------------------------------|

 lead guitar
e|---------------------------------------------------------------------------|
B|--8-x-8-8--7--8-x-8-8--7--8-x-8-8--7--8~~----7~~---------------------------|
G|--9-x-9-9--7--9-x-9-9--7--9-x-9-9--7--9~~----7~~---------------------------|
D|---------------------------------------------------------------------------|
A|---------------------------------------------------------------------------|
E|---------------------------------------------------------------------------|
 |
 rhythm guitar
e|---------------------------------------------------------------------------|
B|---------------------------------------------------------------------------|
G|--9-x-9-9--7--5-x-5-5-5/7--7-x-7-7--7/4-x-4-4--4---------------------------|
D|--9-x-9-9--7--5-x-5-5-5/7--7-x-7-7--7/4-x-4-4--4---------------------------| 
A|--7-x-7-7--5--3-x-3-3-3/5--5-x-5-5--5/2-x-2-2--2---------------------------|
E|---------------------------------------------------------------------------|

  lead guitar
e|---------------------------------------------------------------------------|
B|--8-x-8-8--7--8-x-8-8--7--8-x-8-8--7--/12~~~~~-----------------------------|
G|--9-x-9-9--7--9-x-9-9--7--9-x-9-9--7--/11~~~~~-----------------------------|
D|---------------------------------------------------------------------------|
A|---------------------------------------------------------------------------|
E|---------------------------------------------------------------------------|
 |
 rhythm guitar
e|---------------------------------------------------------------------------|
B|---------------------------------------------------------------------------|
G|--9-x-9-9--7--5-x-5-5-5/7--7-x-7-7--7/4-x-4-4--4---------------------------|
D|--9-x-9-9--7--5-x-5-5-5/7--7-x-7-7--7/4-x-4-4--4---------------------------| 
A|--7-x-7-7--5--3-x-3-3-3/5--5-x-5-5--5/2-x-2-2--2---------------------------|
E|---------------------------------------------------------------------------|

  lead guitar
e|---------------------------7h8p7----7h8h10p8p7--------7--------------------|
B|--8-x-8-8--7--8-x-8-8--7---------10------------10-8-7---7---------10-7-----|
G|--9-x-9-9--7--9-x-9-9--7----------------------------------10-9-7-----------|
D|---------------------------------------------------------------------------|
A|---------------------------------------------------------------------------|
E|---------------------------------------------------------------------------|
 |
 rhythm guitar
e|---------------------------------------------------------------------------|
B|---------------------------------------------------------------------------|
G|--9-x-9-9--7--5-x-5-5-5/7--7-x-7-7--7/4-x-4-4--4---------------------------|
D|--9-x-9-9--7--5-x-5-5-5/7--7-x-7-7--7/4-x-4-4--4---------------------------| 
A|--7-x-7-7--5--3-x-3-3-3/5--5-x-5-5--5/2-x-2-2--2---------------------------|
E|---------------------------------------------------------------------------|
 
  lead guitar
e|-----------------------------12h14----12h14h17p14p12------------------------------------|
B|--8-x-8-8--7--8-x-8-8--8-8---------15----------------15-14-12---------------------------|
G|--9-x-9-9--7--9-x-9-9--9-9------------------------------------15-14-12------------------|
D|------------------------------------------------------------------------14--------------|
A|---------------------------------------------------------------------------14-13-12\----|
E|----------------------------------------------------------------------------------------|
 |
 rhythm guitar
e|---------------------------------------------------------------------------|
B|---------------------------------------------------------------------------|
G|--9-x-9-9--7--5-x-5-5-5/7--7-x-7-7--7/4-x-4-4--4---------------------------|
D|--9-x-9-9--7--5-x-5-5-5/7--7-x-7-7--7/4-x-4-4--4---------------------------| 
A|--7-x-7-7--5--3-x-3-3-3/5--5-x-5-5--5/2-x-2-2--2---------------------------|
E|---------------------------------------------------------------------------|

[Verse 3]

 lead guitar
    P.M - - - - - - - - - - - - - - - - - - - - - - - - -|
e|---------------------------------------------------------------------------|
B|---------------------------------------------------------------------------|
G|---------------------------------------------------------------------------|
D|---------------------------------------------------------------------------|
A|--7-7-7-7--7-7-7-7--7-7-7-7--7-7-7-7--7-7-7-7--7-7-7-7----2*~~-------------|
E|---------------------------------------------------------------------------|
 |
 rhythm guitar
e|---------------------------------------------------------------------------|
B|---------------------------------------------------------------------------|
G|--9-----------------------------------5-------------------4----------------|
D|--9-----------------------------------5-------------------4----------------|
A|--7-----------------------------------3-------------------2----------------|
E|---------------------------------------------------------------------------|

  lead guitar
   P.M - - - - - - - - - - - - - - - - - - - - - - - - -| 
e|---------------------------------------------------------------------------|
B|---------------------------------------------------------------------------|
G|-----------------------x-4*b5p0--------------------4~~t9*------------------| 
D|---------------------------------------------------------------------------|  
A|--7-7-7-7--7-7-7-7--7-----------3-3-3-3--3-3-3-3---------------------------| 
E|---------------------------------------------------------------------------|  
 |                      
 rhythm guitar                                                                      
e|---------------------------------------------------------------------------|
B|---------------------------------------------------------------------------|
G|--9-----------------------------------5-------------------4----------------|
D|--9-----------------------------------5-------------------4----------------|
A|--7-----------------------------------3-------------------2----------------|
E|---------------------------------------------------------------------------|

  lead guitar
e|-------------------------------------|
B|-------------------------------------|
G|--2*b4--2---2--2*b4r2----------------|
D|---------------------4---------------|
A|-------------------------------------|
E|-------------------------------------|
 |
 rhythm guitar
e|-------------------------------------|
B|-------------------------------------|
G|--2b4--2---2--2b4r2------------------|
D|---------------------4---------------|
A|-------------------------------------|
E|-------------------------------------|

  lead guitar
e|---------------------------------------------------------------------------|
B|--8-x-8-8--7--8-x-8-8--7--8-x-8-8--7--8~~----7~~---------------------------|
G|--9-x-9-9--7--9-x-9-9--7--9-x-9-9--7--9~~----7~~---------------------------|
D|---------------------------------------------------------------------------|
A|---------------------------------------------------------------------------|
E|---------------------------------------------------------------------------|
 |
 rhythm guitar
e|---------------------------------------------------------------------------|
B|---------------------------------------------------------------------------|
G|--9-x-9-9--7--5-x-5-5-5/7--7-x-7-7--7/4-x-4-4--4---------------------------|
D|--9-x-9-9--7--5-x-5-5-5/7--7-x-7-7--7/4-x-4-4--4---------------------------| 
A|--7-x-7-7--5--3-x-3-3-3/5--5-x-5-5--5/2-x-2-2--2---------------------------|
E|---------------------------------------------------------------------------|

  lead guitar
e|---------------------------------------------------------------------------|
B|--8-x-8-8--7--8-x-8-8--7--8-x-8-8--7------12----12----12----12--12*\-------|
G|--9-x-9-9--7--9-x-9-9--7--9-x-9-9--7--/11----11----11----11----------------|
D|---------------------------------------------------------------------------|
A|---------------------------------------------------------------------------|
E|---------------------------------------------------------------------------|
 |
 rhythm guitar
e|---------------------------------------------------------------------------|
B|---------------------------------------------------------------------------|
G|--9-x-9-9--7--5-x-5-5-5/7--7-x-7-7--7/4-x-4-4--4---------------------------|
D|--9-x-9-9--7--5-x-5-5-5/7--7-x-7-7--7/4-x-4-4--4---------------------------| 
A|--7-x-7-7--5--3-x-3-3-3/5--5-x-5-5--5/2-x-2-2--2---------------------------|
E|---------------------------------------------------------------------------|
 
  lead guitar
e|-------------------------------------|
B|-------------------------------------|
G|--2*b4--2---2--2b4r2-----------------|
D|---------------------4---------------|
A|-------------------------------------|
E|-------------------------------------|
 |
 rhythm guitar
e|-------------------------------------|
B|-------------------------------------|
G|--2b4--2---2--2b4r2------------------|
D|---------------------4---------------|
A|-------------------------------------|
E|-------------------------------------|

  lead guitar                                                                  ----
e|---------------------------------------------------------------------------|  |
B|--8-x-8-8--7--8-x-8-8--7--8-x-8-8--7--8~~----7~~---------------------------|  |
G|--9-x-9-9--7--9-x-9-9--7--9-x-9-9--7--9~~----7~~---------------------------|  |
D|---------------------------------------------------------------------------|  |
A|---------------------------------------------------------------------------|  |
E|---------------------------------------------------------------------------|  |
 |                                                                               |
 rhythm guitar                                                                  |
e|---------------------------------------------------------------------------|  |
B|---------------------------------------------------------------------------|  |
G|--9-x-9-9--7--5-x-5-5-5/7--7-x-7-7--7/4-x-4-4--4---------------------------|  |
D|--9-x-9-9--7--5-x-5-5-5/7--7-x-7-7--7/4-x-4-4--4---------------------------|  |
A|--7-x-7-7--5--3-x-3-3-3/5--5-x-5-5--5/2-x-2-2--2---------------------------|  |
E|---------------------------------------------------------------------------|  |
                                                                                |
 lead guitar                                                                    |    x2
e|---------------------------------------------------------------------------|  |
B|--8-x-8-8--7--8-x-8-8--7--8-x-8-8--7--/12~~~~~-----------------------------|  |
G|--9-x-9-9--7--9-x-9-9--7--9-x-9-9--7--/11~~~~~-----------------------------|  |
D|---------------------------------------------------------------------------|  |
A|---------------------------------------------------------------------------|  |
E|---------------------------------------------------------------------------|  | 
 |                                                                               |
 rhythm guitar                                                                  |
e|---------------------------------------------------------------------------|  |
B|---------------------------------------------------------------------------|  |
G|--9-x-9-9--7--5-x-5-5-5/7--7-x-7-7--7/4-x-4-4--4---------------------------|  |
D|--9-x-9-9--7--5-x-5-5-5/7--7-x-7-7--7/4-x-4-4--4---------------------------|  |
A|--7-x-7-7--5--3-x-3-3-3/5--5-x-5-5--5/2-x-2-2--2---------------------------|  |
E|---------------------------------------------------------------------------|  |

[Outro Solo]
 
 lead guitar
e|-------------------------------------------|
B|-------8h12p8---------8h12p8---------------|
G|--9h11--------11-9h11--------11------------|
D|-------------------------------------------|
A|-------------------------------------------|
E|-------------------------------------------| x4

e|-------------------------------------------|
B|--------12h15p12----------12h15p12---------|      
G|--12h14----------14-12h14----------14------|      
D|-------------------------------------------|       
A|-------------------------------------------|      
E|-------------------------------------------| x2

e|--------12h14p12----------12h15p12---------|
B|-------------------------------------------|      
G|--12h14----------14-12h14----------14------|      
D|-------------------------------------------|       
A|-------------------------------------------|      
E|-------------------------------------------| x2

e|--------12h17p12----------12h17p12---------|
B|-------------------------------------------|      
G|--12h14----------14-12h14----------14------|      
D|-------------------------------------------|       
A|-------------------------------------------|      
E|-------------------------------------------| x4

e|--------12h17p12-15-14p12----14p12-----------------------------------|
B|--------------------------15-------15p12--------------15p12h15p12----|      
G|--12h14----------------------------------15p14p12-12-----------------|      
D|---------------------------------------------------------------------|       
A|---------------------------------------------------------------------|      
E|---------------------------------------------------------------------|

e|---------------------------------------------------------------------|
B|--15p12h15p12~-15p12h15p12~-15p12h15p12~-15p12h15p12h15p12~--15*b----|      
G|---------------------------------------------------------------------|      
D|---------------------------------------------------------------------|       
A|---------------------------------------------------------------------|      
E|---------------------------------------------------------------------|


************************************

| b   Bend
| h   Hammer-on
| /   Slide up
| x   Dead note
| ~   Vibrato
| p   Pull-off
| *   Natural harmonic
| r   Release
| br  Bend release
| \   Slide down

************************************

            
            
Suggest correction
Creating personal tab
Creating personal tab
You can edit any tab online and save it as your Personal.

You can edit, replace or remove any tab part or add personal notes – all changes will be seen only by you.

Personal tabs can be accessed anytime from any device, even offline.
Learn more »
Give kudos to tab author, rate the tab!
1 2 3 4 5
comments
print report bad tab
guest
You may want to rate the tab now too:
select rating
Wanna post a correction for this tab? Suggest correction