Oops, an error
Loading. Please wait.

Dynamite Tab

version 2
version 2

Whole song

Interactive

9,022 views 15 this week
1 commentread comment
1 2 3 4 5
excellent!
x 4
add to favorites
launch autoscroll
font size
0
reset
how to read this tab
guitar tuner
Tab Pro tools
  • play this tab
  • loop segment
  • change instrument
  • show fretboard
  • metronome
Autoscroll
slow
fast
+/-
esc
set tempo
stop
Contributor
Difficulty
advanced
Band:  The Scorpions
Album: Blackout
Song:  Dynamite

Copyright (c)  (Harvest) (1982)
Version 1.0 - (22/06/06)

Transcribed By: Steve
Email:          stephen.elvidge1@ntlworld.com


.  - palm mute           /  - slide up to
\  - slide down to       ~  - vibrato
h  - hammer on           b  - Bend
p  - pull off            Suffixes for bend
t  - tap                 f  - full bend    h - half bend
ph - pinched harmonic    q  - quarter bend t - tap bend
                         p  - pre bend
*  - see comment         ^  - Hold bend    r release bend
x  - Stuccatto           ~  - vibrato bend
,  - slight palm mute    () - ghost note, sustained note
"  - tremolo note        <> - harmonic

Tuning E A D G B E

 
 Main Riff

|-----------------------------------------------------------------|
|-----------------------------------------------------------------|
|-----------------7/11\9-9/7\6-----------------7/11\9-x-x-x-x-x-x-|
|-----------------7/11\9-6/7\6-----------------7/11\9-x-x-x-x-x-x-|
|-4-5---4---2-7-7-5/9-\7-4/5\4-4-5---4---2-7-7-5/9-\7-x-x-x-x-x-x-|
|-2(2)2(2)2(2)5-5--------------2(2)2(2)2(2)5-5--------------------| Rpt 3 X

 Intro solo

|-14-------------17-17-16------14-------------10-14-12------------|
|-17b------------20b20b19b-----17b------------12b17b15b-----------|
|-----------------------------------------------------------------|
|-----------------------------------------------------------------|
|-----------------------------------------------------------------|
|-----------------------------------------------------------------|

|-14-------------17-17-16------14-------------10---12-------------|
|-17b------------20b20b19b-----17b------------12b--15b------------|
|-----------------------------------------------------------------|
|-----------------------------------------------------------------|
|-----------------------------------------------------------------|
|-----------------------------------------------------------------|

 Verse


 Guitar 1
[----------------------------|
[----------------------------|
[-11\------------------------|
[-11\------------------------|
[-9\-------------------------|
[----------------------------|
[Guitar 2
[-14---\---------------------|
[-17b--\---------------------|
[----------------------------|
[----------------------------|
[----------------------------|
[----------------------------|

|--------------------------------|
|--------------------------------|
|-11-\---------------------9-9---|
|-11-\---------------------9-9---|
|-9--\---------------------7-7---|
|--------------------------------|

|----------------------------|
|----------------------------|
|-11\------------------------|
|-11\------------------------|
|-9\-------------------------|
|----------------------------|

 Chorus Rpt Main Riff 4 X

 Rpt Verse

 Rpt Chorus with intro solo


 Backing for solo

          [------PM------]
|-------------------------|
|-10-9--7-----------------|
|-9--8--6-----------------|
|-7--6--4-4-4-4-4-4-4-4-4-|
|-------------------------|
|-------------------------| Rpt 3 X 

|----------------------|
|----------------------|
|-7--9--7--9-----------|
|-7--9--7--9-----------|
|-5--7--5--7--x-x-x-x--|
|----------------------|

 Rpt above 3 X

          [------PM------]
|-------------------------|
|-10-9--7-----------------|
|-9--8--6-----------------|
|-7--6--4-4-4-4-4-4-4-4-4-|
|-------------------------|
|-------------------------| Rpt 3 X 

|---------------------------------------------------------------|
|---------------------------------------------------------------|
|-7--9--7--9---------(9)---------7--9--7--9---------(9)---------|
|-7--9--7--9---------(9)---------7--9--7--9---------(9)---------|
|-5--7--5--7---------(7)---------5--7--5--7---------(7)---------|
|---------------------------------------------------------------|


 Guitar solo

              phphphphphphphph[---------------ph-----------------]
|------------------------------------------------------------------|
|------------------------------------------------------------------|
|-4p2-4p2-4p2-4p2-4p2-4p2-4p2-2p1-2-3p2p1-2p1-2-3p2p1-2p1-2-3p2p1--|
|------------------------------------------------------------------|
|------------------------------------------------------------------|
|------------------------------------------------------------------|

  [---ph-----]           [-----ph-----]        [----ph----]
|-----------------------------------------------0-2-2-0-----|
|-------------------------5-4-5-------5------------------2--|
|-2p1-2-3p2p1-2-2-4p2-----------4-2-4-----------------------|
|-------------2-------2-4---------------2-4-2-4-------------|
|-----------------------------------------------------------|
|-----------------------------------------------------------|

                                    h  h    h     h   h   h
|-12-14p12----12-14-12----------12-14-------------------------|
|----------14----------14-12-14-------14p12-14p12-------------|
|-------------------------------------------------------------|
|-------------------------------------------------9p7-9p7-9p7-|
|-------------------------------------------------------------|
|-------------------------------------------------------------|

  ph  ph~~~~~~~~~~~~~~    ~~~[------PM-----]
|---------------------------------------------------------------------|
|-------------------------------------------------------------5-7p5-7-|
|-5---5---5-5-5-5-5-5-4-2-----1---2-0-----------2-4p2-4/6p4-6---------|
|-------------------------4-----4-----2-444-2-4-----------------------|
|---------------------------------------------------------------------|
|---------------------------------------------------------------------|

   
|---5-7p5-7p5------16---16---16--16--16--16--16--16---------------|
|-5-----------12fb----0----0\--0\--0\--0\--0\--0\--10-12-10----10-|
|-----------------------------------------------------------11----|
|-----------------------------------------------------------------|
|-----------------------------------------------------------------|
|-----------------------------------------------------------------|


|--------14----14----14----14----14----14----14----14-18fb-r-16-----|
|-12b-17b---17b---17b---17b---17b---17b---17b---17b-----------------|
|-------------------------------------------------------------------|
|-------------------------------------------------------------------|
|-------------------------------------------------------------------|
|-------------------------------------------------------------------|

                                                       h     h
|-14-12-14/16-14-16-14-16br16p14-16-16fb-16-16br16p14-14p12-14p12---|
|-------------------------------------------------------------------|
|-------------------------------------------------------------------|
|-------------------------------------------------------------------|
|-------------------------------------------------------------------|
|-------------------------------------------------------------------|

   h     h
|-14p12-14p12-------------------------------------------------------|
|-------------17b--17brp14----17---17----17----17-----17b17bp14-----|
|--------------------------16---16b---16b---16b---16b-----------15--|
|-------------------------------------------------------------------|
|-------------------------------------------------------------------|
|-------------------------------------------------------------------|

                                                
|-------------------------------------------------------------------|
|-14-13-12-10--------5----------------/14b-------14b---r14b---------|
|-------------11-9-6---6-4\2-4b-----\-/14b-------14b---r14b---------|
|-------------------------------------------------------------------|
|-------------------------------------------------------------------|
|-------------------------------------------------------------------|

                     pick scrape
|----------------------------|
|--------(14)---------\-\----|
|--------(14)----------\-\---|
|----------------------------|
|----------------------------|
|----------------------------|

 Guitar 1 plays main riff

 Guitar 2 with wah
 [---------------PM-----------------]
|--------------------------------------|
|--------------------------------------|
|--------------------------------------|
|-10101010101010101010101010101010--9/-|
|-8-8-8-8-8-8-8-8-8-8-8-8-8-8-8-8-7-7/-|
|--------------------------------------|

   [-------------PM--------------]
|-------------------------------------------------|
|-------------------------------------------------|
|----------------------------------1414-14-16-14--|
|-10101010101010101010101010101010-1414-14-16-14--|
|-8-8-8-8-8-8-8-8-8-8-8-8-8-8-8-8-----------------|
|-------------------------------------------------|

    [-------------PM--------------] h   h    h    h
|--------------------------------------------------------|
|----------------------------------------------10-12/14\-|
|-----------------------------------------9-11-----------|
|-10101010101010101010101010101010----7-9----------------|
|-8-8-8-8-8-8-8-8-8-8-8-8-8-8-8-8-7-9--------------------|
|--------------------------------------------------------|

   [-----------PM-------------]
|----------------------------------|
|----------------------------------|
|----------------------------------|
|-10101010101010101010101010101010-|
|-8-8-8-8-8-8-8-8-8-8-8-8-8-8-8-8--|
|----------------------------------|

|------------------------------------------------|
|------------------------10-11-12---------14--\--|
|--------9-10-11-9-10-11----------11-9-11-16b-\--|
|-7-9-11-----------------------------------------|
|------------------------------------------------|
|------------------------------------------------|

 Rpt Verse
 Rpt Chorus 2 X

|------------------|
|------------------|
|-9-----9----------|
|-9-----9----------|
|-7-xxx-7-xxx-xxx--|
|------------------| Rpt 4 X

 Rpt Chorus

|-----------------------------------------------------|
|-----------------------------------------------------|
|-7--10-9-------(9)--------7--10-9-------(9)----------|
|-7--10-9-------(9)--------7--10-9-------(9)----------|
|-5--8--7-------(7)--------5--8--7-------(7)----------|
|-----------------------------------------------------|


|--------------------------------------------------------------------|
|--------------------------------------------------------------------|
|-9-9-9-9-9-9-9-9\-----9-9-9-9-9-9-9-9\----9-9-9-9-9-9-9-9---(9)---/-|
|-9-9-9-9-9-9-9-9\-----9-9-9-9-9-9-9-9\----9-9-9-9-9-9-9-9---(9)---/-|
|-7-7-7-7-7-7-7-7\-----7-7-7-7-7-7-7-7\----7-7-7-7-7-7-7-7---(7)---/-|
|--------------------------------------------------------------------|

 Guitar 1
[-------------------------------------------------------------------|
[-------------------------------------------------------------------|
[-10-------------------------(10)-------------------------------10\-|
[-10-------------------------(10)-------------------------------10\-|
[-8--------------------------(8)--------------------------------8-\-|
[-------------------------------------------------------------------|
[Guitar 2
[  ~~~~~~~~~~~~~~~~~~~~~~~~~~~~~~~~~~~~~~~~~~~~~~~~~~~~~~~~~~~~
[-------------------------------------------------------------------|
[-19------------------------------------------------------------19\-|
[-------------------------------------------------------------------|
[-------------------------------------------------------------------|
[-------------------------------------------------------------------|
[-------------------------------------------------------------------|




END

comments
print report bad tab
1 comment total.
0 reply
zisis97 wrote on July 1 2011, 07:25 am

nice tab very helpful!!

I want to post or [tab]
guest
You may want to rate the tab now too:
select rating
Please do not post tabs as comments. Select "correction" instead!