Oops, an error
Loading. Please wait.

Here In My Heart Tab

version 1
version 1

Whole song

4,956 views 1 this week
no commentswrite comment
1 2 3 4 5
accurate
x 4
add to favorites
launch autoscroll
font size
0
reset
how to read this tab
guitar tuner
Tab Pro tools
  • play this tab
  • loop segment
  • change instrument
  • show fretboard
  • metronome
×
Best way to learn
"Here In My Heart"
Autoscroll
slow
fast
+/-
esc
set tempo
stop
Contributor
Subject: Here In My Heart
Artist: Scorpions & Berlin Philharmonic Orchestra
From The Album : Moment Of Glory
Music&Lyrics: Diane Warren


This Tab is donated by John-Paul Jalwan. 

my e-mails: jp@cartage.org.lb
	    blackout@cyberia.net.lb
	    webmaster@scorpsonline.com

I got a website about scorpions: http://www.scorpions.f2s.com
				 http://www.scorpsonline.com




When I first listened to this song, I had no special feelings! 
but when I tried to catch its guitars plays, I found out this 
song's like a prelude of Bach or something like that!!! it amazes me!
-----------------------------------------------------------------------------


Gtr 1: Classical Guitar Played by Rudolf
Gtr 2: Electic Guitar: Clean on verses and Overdriven on chorus - played by matthias



***Intro:


Gtr 1|---------------------------|----5------|--------3---------|---------------5-|
     |---------------------------|-----------|------------------|-------------5---|
     |---------------------------|--6--------|------4-----------|-----------6-----|
     |---------------------------|------7----|------------------|-------7---------|
     |---------------------------|-----------|----5-------------|---7-------------|
     |---------------------------|-----------|--3---------------|-5---5---5-------|
     |								                  |
     |									          |
     |									          |
Gtr 2|-------2-----|-------3-----|-------0---|----------0-------------------------|
     |-----3-------|-------------|-----------|-------3----3--0--------------------|
     |---2---------|-----0-------|-----2-----|-----0------------------------------|
     |-0-----------|-------------|---2-------|---0--------------------------------|
     |-------------|---2---------|-0---------|------------------------------------|
     |-------------|-3-----------|-----------|-3----------------------------------|




***Verse 1:

       C                    F                   C                 F
Gtr 1|------0------------|------1---0--------|-----0------------|-----1---0-------|
     |----------3---1----|--------------3----|---------3---1----|-------------3---|
     |----0---0---0---0--|----2---2---2---2--|---0---0---0---0--|---2---2---2---2-|
     |-------------------|-3-----------------|------------------|-3---------------|
     |-3-----------------|-------------------|-3----------------|-----------------|
     |-------------------|-------------------|------------------|-----------------|
     |								                  |
     |									          |
     |									          |
Gtr 2|-------------------|-------------------|------------------|-----------------|
     |-------1-----------|-------1-----------|-------1----------|-------1---------|
     |-----0-------------|-----2-------------|-----0------------|-----2-----------|
     |---2---------------|---3---------------|---2--------------|---3-------------|
     |-3-----------------|-3-----------------|-3----------------|-3---------------|
     |-------------------|-------------------|------------------|-----------------|
 Sometimes....There's a time you must say goodbye.....Thought it hurts you must learn to 



        Dm                  Bb                  D#                G#
Gtr 1|----1--0-----------|-----1---0---------|-----3---1--------|-----4---3---1---|
     |-----------3-------|--------------3----|-------------4----|-----------------|
     |---2--2--2---2-----|---3---3---3----3--|---3---3---3---3--|---1---1---1---1-|
     |-0-----------------|-------------------|-1----------------|-3---------------|
     |-------------------|-1-----------------|------------------|-----------------|
     |-------------------|-------------------|------------------|-----------------|
     |								                  |
     |									          |
     |									          |
Gtr 2|-------1-----------|-------------------|------------------|-----------------|
     |-----3-------------|-------------------|-------8----------|-------4---------|
     |---2---------------|-----3-------------|-----8------------|-----5-----------|
     |-0-----------------|---3---------------|---8--------------|---6-------------|
     |-------------------|-1-----------------|-6----------------|-6---------------|
     |-------------------|-------------------|------------------|-----------------|
.....try...........I know i've got to let you go...  but i know anywhere you go 


       
       G#6/5- (no3)         G                          F                 G
Gtr 1|-----1---0---------|----3---3---3---3---------|--5--------------|-----------|
     |-------------3-----|------3---1---0-----------|------3---1---1--|-3---------|
     |---1---1---1---1---|-0------------------------|----2---2---2----|-0---------|
     |-0-----------------|--------------------------|-----------------|-0---------|
     |-------------------|--------------------------|-----------------|-2---------|
     |-------------------|--------------------------|-----------------|-3---------|
     |								                  |
     |									          |
     |									          |
Gtr 2|-----1---0---------|----3---3---3---3---------|--5--------------|-----------|
     |-------------3-----|------3---1---0-----------|------3---1---1--|-3---------|
     |---1---1---1---1---|-0------------------------|----2---2---2----|-0---------|
     |-0-----------------|--------------------------|-----------------|-0---------|
     |-------------------|--------------------------|-----------------|-2---------|
     |-------------------|--------------------------|-----------------|-3---------|
you'll never be far.it's like a light......  you keep shining.... you're gonna be right 




***Chorus: 
(overdriven guitar. 
you can also play the same classical 
patterns)

  D            G 
  here in my heart 
  G 
  that's where you'll be 
 A 
  you'll be with me 
  D                G 
  here, here in my heart
        F#m         Em 
  no  distance can keep us apart
               A
  long as you're here in my heart



***Verse 2:
 
        D                  G                   D                  G
Gtr 1|-----2---0---------|-----3---2---0-----|-----2---0--------|-----3---2---0---|
     |-------------3-----|---0---0---0---0---|-------------3----|---0---0---0---0-|
     |---2---2---2---2---|-0-----------------|---2---2---2---2--|-0---------------|
     |-0-----------------|-------------------|-0----------------|-----------------|
     |-------------------|-------------------|------------------|-----------------|
     |-------------------|-------------------|------------------|-----------------|
     |								                  |
     |									          |
     |					             			          |
Gtr 2|-------2-----------|-------3-----------|-------2----------|-------2---------|
     |-----3-------------|-----0-------------|-----3------------|-----0-----------|
     |---2---------------|---0---------------|---2--------------|---0-------------|
     |-0-----------------|-------------------|-0----------------|-----------------|
     |-------------------|-------------------|------------------|-----------------|
     |-------------------|-3-----------------|------------------|-3---------------|
  Won't be..........any tears falling from these eyes.. cos when love's true love never... 


       Em                   C                  F                    Bb
Gtr 1|-----3---2---0-----|-----3---2---0-----|--------------------|-----6---5---3---|
     |---0---0---0---0---|---1---1---1---1---|----10---8----------|-----------------|
     |-------------------|-------------------|---------------10---|---3---3---3---3-|
     |-2-----------------|-2-----------------|--10---10---10---10-|-5---------------|
     |-------------------|-------------------|8-------------------|-----------------|
     |-------------------|-------------------|--------------------|-----------------|
     |								                    |
     |									            |
     |									            |
Gtr 2|-------0-----------|-------0-----------|-------1------------|-----------------|
     |-----0-------------|-----2-------------|-----1--------------|------3----------|
     |---0---------------|---0---------------|---2----------------|----3------------|
     |-2-----------------|-2-----------------|--------------------|---5-------------|
     |-------------------|-------------------|--------------------|-5---------------|
     |-------------------|-------------------|-1------------------|-----------------|
   ..dies.............. it stays alive forever... time can't take away what we have 


       A#6/5-(no3)          A                 G                    A
Gtr 1|-----3---2---0-----|-----0-------------|-----2---0--------|-0---------------|
     |-------------------|---------3---2-----|-------------3----|-2---------------|
     |---3---3---3---3---|---2---2---2---2---|---4---4---4---4--|-2---------------|
     |-2-----------------|-------------------|-5----------------|-2---------------|
     |-------------------|-0-----------------|------------------|-0---------------|
     |-------------------|-------------------|------------------|-----------------|
     |								                  |
     |									          |
     |									          |
Gtr 2|-------3-----------|-------0-----------|-----0------------|-0---------------|
     |-----3-------------|-------------------|------------------|-2---------------|
     |---3---------------|-----2-------------|---4----4---------|-2---------------|
     |-2-----------------|---2---------------|-5----------------|-2---------------|
     |-------------------|-0-----------------|------------------|-0---------------|
     |-------------------|-------------------|------------------|-----------------|
 I will remember..our time together u might think our time is through but i still have u



***chorus:

 E            A 
  here in my heart 
  A 
  that's where you'll be 
 B 
  you'll be with me 
  E                A 
  here, here in my heart
        G#m         F#m 
  no  distance can keep us apart
               B
  long as you're here in my heart



***Bridge:

G5             A5         F#5
  I know you'll be back again
             B5
  and 'till then
B5
  my love is waiting



***Solo:


Gtr 1|-4---4--2--0-----------------5-4--------------------------------------|
     |-5-------------------------------5/7--------------------2-4-5--7/9--9-|
     |-4------------2----(2)-1----------------------------2-4---------------|
     |----------------------------------------------2-4-6-------------------|
     |-------------------------0------------2-2-4-6-------------------------|
     |----------------------------------------------------------------------|



Gtr 1|-7--5--4--------------7-------------------4----7--5--4-------9-9-------------|
     |----------5----4-2-4-----------------5--5---5-----------7-------10-9-7-------|
     |--------------------------------4-6------------------------------------9-8-9-|
     |------------------------4-4-6-7----------------------------------------------|
     |-----------------------------------------------------------------------------|
     |-----------------------------------------------------------------------------|


***Chorus:

 E            A 
  here in my heart 
  A 
  that's where you'll be 
 B 
  you'll be with me 
  E                A 
  here, here in my heart
        G#m         F#m 
  no  distance can keep us apart
               B
  long as you're here in my heart


 E            A 
  here in my heart 
  A 
  that's where you'll be 
 B 
  you'll be with me 
  E                A 
  here, here in my heart
        G#m         F#m
  no  distance can keep us apart
               B		   E
  long as you're here in my heart


***Ending:


Gtr 1|---4--2--0-------------------------7------------5----9----12--------|
     |--5---------2-----------------9-------9-------5---5----5-------9----|
     |------------------------6-8-9---9-----------6------------------9----|
     |-6----------------6-7-9-------------------7--------------------9----|
     |---------------------------------------------------------------7----|
     |--------------------------------------------------------------------|



it took me a long time to acheive this song!!! it's not an easy one, 
with so much complicated harmonies, but very easy-listening. I like it!!

------------------------------------------
John-Paul Jalwan (Lebanon).

webmaster@scorpsonline.com
blackout@cyberia.net.lb
jp@cartage.org.lb


---------------------------
Downloaded from:
http://www.scorpsonline.com
---------------------------
comments
print report bad tab
I want to post or [tab]
guest
You may want to rate the tab now too:
select rating
Please do not post tabs as comments. Select "correction" instead!