Oops, an error
Loading. Please wait.

Hes A Woman Shes A Man Tab

version 2
version 2

Whole song

Interactive

2,606 views 1 this week
no commentswrite comment
1 2 3 4 5
please rate
add to favorites
launch autoscroll
font size
0
reset
how to read this tab
guitar tuner
Tab Pro tools
  • play this tab
  • loop segment
  • change instrument
  • show fretboard
  • metronome
×
Best way to learn
"Hes A Woman Shes A Man"
Autoscroll
slow
fast
+/-
esc
set tempo
stop
Contributor
Difficulty
intermediate
Band:  Scorpions
Album: Taken By Force
Song:  He's A Woman, She's A Man
Copyright (c)  (RCA) (1979)
Version 1.0 - (30/06/05)



.  - palm mute           /  - slide up to
\  - slide down to       ~  - vibrato
h  - hammer on           b  - Bend
p  - pull off            Suffixes for bend
t  - tap                 f  - full bend    h - half bend
ph - pinched harmonic    q  - quarter bend t - tap bend
*  - see comment         ^  - Hold bend    r release bend
x  - Stuccatto           ~  - vibrato bend
,  - slight palm mute    () - ghost note, sustained note
"  - tremolo note        <> - Trill

Tunning E A D G B E
 

 Intro


E------------------------------------|
B------------------------------------|
G-7/9----12--\10--7/9----12--/14-----|
D-7/9----12--\10--7/9----12--/14-----|
A-5/7----10--\9---5/7----10--/12-----|
E------------------------------------| Rpt

 Main Riff

 [----PM----]  [PM] [PM]  [PM]
E-------------------------------|
B-------------------------------|
G-------------------------------|
D-------------7----8----10----8-|
A-------------7----8----10----8-|
E-000-000-000---00---00----00---| Rpt 3 X

 [----PM----]  [PM] [PM]  
E-------------------------------------|
B-------------------------------------|
G----------------------------12--\10--|
D-------------7----8----10---12--\10--|
A-------------7----8----10---10--\9---|
E-000-000-000---00---00---------------|

 Verse

  ~~    PM ~~   PM ~~   PM ~~~~
E------------------------------|
B------------------------------|
G-------------------------3\2--|
D---2-2-----2-2-----2-2---3\2--|
A------------------------------|
E-3-----0-3-----0-3-----0------| Rpt 3 X

E---------------------|
B-8----8----8------\--|
G-7----7----7------\--|
D-6----6----6------\--|
A-7----7----7------\--|
E---------------------|

 Rpt

 Chorus
                       [-------PM-------]   [-------PM-------]
E-------------------------------------------------------------------|
B-------------------------------------------------------------------|
G-------------------------------------------------------------------|
D-5---------/7----------------------------7-------------------8\7-7-|
A-3---------/5----------------------------7-------------------8\7-7-|
E-----------------------0-0-0-0-0-0-0-0-0-5-0-0-0-0-0-0-0-0-0-6\5-5-|
   Rpt 3 X

                       
E-----------------------|
B-----------------------|
G-----------------------|
D-5---------/7----------|
A-3---------/5----------|
E-----------------------|

 Rpt Main Riff 3 X

 Rpt Verse and Chorus.

 Rpt Intro
 
 Backing for guitar solo is Verse riff 7 X

E-----------------------|
B-8-8-8-8-8-8--(8)---\--|
G-7-7-7-7-7-7--(7)---\--|
D-6-6-6-6-6-6--(6)---\--|
A-7-7-7-7-7-7--(7)---\--|
E-----------------------|

 Rpt Chorus

 Rpt Main Riff once.

 Ending

 [----PM----]  [PM] [PM]  
E------------------------------------------|
B------------------------------------------|
G----------------------------12--\10--7/9--|
D-------------7----8----10---12--\10--7/9--|
A-------------7----8----10---10--\9---5/7--|
E-000-000-000---00---00--------------------|



END

comments
We did not receive enough feedback on this tab! Please rate:
print report bad tab
1 2 3 4 5
I want to post or [tab]
guest
You may want to rate the tab now too:
select rating
Please do not post tabs as comments. Select "correction" instead!