Oops, an error
Loading. Please wait.

Hey You Chords

version 2
version 2

Whole song

Interactive

1,516 views 1 this week
no commentswrite comment
1 2 3 4 5
2 more votes to show rating
add to favorites
launch autoscroll
font size
0
reset
transpose
0
reset
display chords
guitar tuner
×
Best way to learn
"Hey You"
Autoscroll
slow
fast
+/-
esc
set tempo
stop
Author
Difficulty
  follow
novice
scorpions "hey you" awsome song make sure you have your guitar in distortion
so this is my first tab ehhhh tryed my best  :) 8} esy song to learn HA

-----------------2-22222--0-00000--333--222-----------------------------|
-----------------3-33333--1-11111-------333-----------------------------|
-----------------2-22222--0-00000-------222-------reapet----------------|
-----2-2--22222-----------2-22222---------------------------------------|
-----2-2--22222-----------3-33333---------------------------------------|
------------------------------------------------------------------------|

--------------------------------------------------------------------------|
---- after you keep on----------------------------------------------------|
-reapeting you go- --- ---------------------------------------55555555----|
----------------------------2222----------2222----------22222-55555555----|
----------------------------2222----------2222----------22222-33333333----|
---------------------------------32323232------32323232-------------------|
Suggest correction
Give kudos to tab author, rate the tab!
1 2 3 4 5
comments
print report bad tab
guest
You may want to rate the tab now too:
select rating
Wanna post a correction for this tab? Suggest correction