Oops, an error
Loading. Please wait.

Hey You Tab

version 2
version 2

Whole song

Interactive

5,108 views 3 this week
no commentswrite comment
1 2 3 4 5
accurate
x 3
add to favorites
launch autoscroll
font size
0
reset
how to read this tab
guitar tuner
Tab Pro tools
  • play this tab
  • loop segment
  • change instrument
  • show fretboard
  • metronome
×
Best way to learn
"Hey You"
Autoscroll
slow
fast
+/-
esc
set tempo
stop
Contributor
this is a kickass song!enjoy!;)


main riff:
-----------------------------------------------|
------------------------------------8-8-7-7----|
-----------------8-8-7-7-----------------------|
----9-10-7---9-5---------9-10-7--9-5-----------|(x2)
-----------------------------------------------|
-----------------------------------------------|

verse 1:hey you,i'm in love with...(play this part 2 times)
------------------------------------------------|
------------------------------------------------|
-9-x99--7-x77--5-x55-7--99-7-77-----------------|
-9-x99--7-x77--5-x55-7--99-7-77-----------------|
-7-x77--5-x55--3-x33-5--77-5-55-----------------|
------------------------------------------------|

------------------------------------------------|
-----------------------------88-77--------------|
-9-x99--7-x77--5-x55--77-99--77-77--------------|
-9-x99--7-x77--5-x55--77-99--99-77--------------|
-7-x77--5-x55--3-x33--55-77---------------------|
------------------------------------------------|

chorus:
------------------------------------------------|
------------------------------------------------|
-------------------------------------9-5--------|
-------------------------------------9-5--------|
-------------------------------------7-3--------|
--3-0-2-0---3-2-0---3-0-2-0--3-2-0--------------|

solo:
--12-------12--------12-----12----12----12-------------|
--15b17-12-15b17--12-15b17--15b17-15b17-15b17----------|
-------------------------------------------------------|
-------------------------------------------------------|
-------------------------------------------------------|
-------------------------------------------------------|

-15p12--12---------------------------------------------|
------15--15p12--12------------------------------------|
---------------14---14-12--14b-----12h14p12------------|
-------------------------14------14--------14-14-------|
-------------------------------------------------------|
-------------------------------------------------------|

-------------------------------------------------------|
-------------------------------------------------------|
---12h14p12---------------12---------------------------|
-14--------14-14------14H----14H-12----12--------------|
------------------------------------14H--14H-12--------|
-------------------------------------------------------|

--------------------------------------------------------|
--------------------------------------------------------|
---12-----12-----------------12h14p12----------12-12----|
---12-----12h14p12---------14--------14-14--------------|
-14-----14--------14-14---------------------------------|
--------------------------------------------------------|
play it fast
-------12------12-------12-------12--15p12--12----------|
------------------------------------------15--15p12-----|
-14-14----14-14---14-14-----14-14-----------------------|
--------------------------------------------------------|
--------------------------------------------------------|
--------------------------------------------------------|

------------12------------------------------------------|
--------------------------------------------------------|
-14-12-14-14---14-12--12--------------------------------|
--------------------14---14-12---12---------------------|
-------------------------------14---14-12---------------|
--------------------------------------------------------|

--------------------------12-15~-------------------------|
---------------------12-15-------------------------------|
----------------12-14------------------------------------|
-----------12-14-----------------------------------------|
------12-14----------------------------------------------|
-12-15---------------------------------------------------|

rhythm during guitar solo:
---------------------------------------------------------|
---------------------------------------------------------|
--9-x99--7-x77--5-x55-77-99----9-x99-7-x77--5-x55--77-99-|
--9-x99--7-x77--5-x55-77-99----9-x99-7-x77--5-x55--77-99-|
--7-x77--5-x55--3-x33-55-77--0-7-x77-5-x55--3-x33--55-77-|
---------------------------------------------------------|

just put them in the correct order.that's the whole song.cheers!:)
comments
We did not receive enough feedback on this tab! Please rate:
print report bad tab
1 2 3 4 5
I want to post or [tab]
guest
You may want to rate the tab now too:
select rating
Please do not post tabs as comments. Select "correction" instead!