Oops, an error
Loading. Please wait.

Holiday Bass Tab

version 1
version 1

Whole song

Interactive

3,594 views 12 this week
no commentswrite comment
1 2 3 4 5
please rate
add to favorites
launch autoscroll
font size
0
reset
guitar tuner
Autoscroll
slow
fast
+/-
esc
set tempo
stop
Help us to improve Ultimate-Guitar.com Take our survey!
×
Contributor
Difficulty
intermediate
Tuning: EADG
Tempo: 118 bpm


Intro (Starting with acoustic guitar solo)

G:|---------------------|----------|-7-7-----------------|-------------------|---------|-
D:|---------5-7--5------|-5-3--5-7-|-----2-3-0-—2-3-2~-7-|-5--2-3-2-0--2-3-2-|--5---7--|-
A:|-5~-7-8---------7~-7-|----------|---------------------|-------------------|---------|-
E:|---------------------|----------|---------------------|-------------------|---------|-

G:|----------|--7---7-9-10~------|-
D:|--7-5-3-7-|-7-7----------5-7~-|-
A:|----------|-------------------|-
E:|----------|-------------------|


Verse 1
G:|-----------------------|-----|-----------------------|-----|-
D:|-----------------------|-----|-----------------------|-----|-
A:|-5~-0-5--0-3--0-4--0-5-|-0-5-|-5~-0-5--0-3--0-4--0-5-|-0-5-|-
E:|-----------------------|-----|-----------------------|-----|-
   Let me take you far away           Let me take you far away
             You’d like a holiday                  You’d like a holiday
|1.
G:|--------|---------|----------|------------------------|-----|-
D:|--------|---------|--5~------|------------------------|-----|-
A:|-5--7-8-|-7-5-3-5-|-5---5--7~|-5~-0-5--0-3--0-4--0-5~-|-0-5-|-
E:|--------|---------|----------|------------------------|-----|-
    You change the cold days for the sun         Let me take you far away
            The good time and fun                    you’d like a holiday


(pause...)

Bridge
G:|-----------------|-
D:|------------2-2--|-
A:|-5---3---1~------|-
E:|-----------------|-

Verse 2
G:|-----------------------|-----|-----------------------|-----|-
D:|-----------------------|-----|-----------------------|-----|-
A:|-5~-0-5--0-3--0-4--0-5-|-0-5-|-5~-0-5--0-3--0-4--0-5-|-0-5-|-
E:|-----------------------|-----|-----------------------|-----|-
   Let me take you far away       Let me take you far away
           you’d like a holiday                you’d like a holiday

|2.
G:|--------|---------|----------|-----------------------|-----|-
D:|--------|---------|--5~------|-----------------------|-----|-
A:|-5--7-8-|-7-5-3-5-|-5---5--7~|-5~-0-5--0-3--0-4--0-5-|-0-5-|-
E:|--------|---------|----------|-----------------------|-----|-
   You’ve changed your        wherever            Let me take you far away
        troubles for some luck            you are                     you’d like a holiday

hooooo- 
(pause)

Bridge
G:|----------------|----------------|-
D:|--------------2-|-------------2~-|-
A:|---5---3---1~---|--5---3---1~----|-
E:|----------------|----------------|-
haaaaaa ….

chorus
G:|----------|----------|----------|----------|-
D:|----------|----------|----------|----------|-
A:|-5-5--0-3-|-5-5--5-5-|-3-3--3-3-|-1-1--1-3-|- x10
E:|----------|----------|----------|----------|-
  Longing for the sun,  you’re welcome to the island without me
  Longing for the sun, be welcome on the island many miles away from home
  Be welcome on the island without me
  Longing for the sun, you’re welcome on the island many miles away from home
  Home… home… home… away from home…………….

then
G:|----------|----------|----------|----------|-
D:|----------|----------|----------|----------|-
A:|-5-5--0-3-|-5-5--5-5-|-3-3--3-3-|---1~~----|-
E:|----------|----------|----------|----------|-

Acoustic guitar playing

Repeat twice the 2 following riffs

G:|-------------------|-
D:|-------------2---2-|-
A:|--5---3---1~-------|- X3
E:|-------------------|-

G:|----------------------|-
D:|--------5-7---5-------|-
A:|-5~-7-8---------7---7-|- X1
E:|----------------------|-

Then sharper
G:|-------------------|-
D:|-------------2---2-|-
A:|--5---3---1~-------|- X3
E:|-------------------|-


And
G:|----------------------|-
D:|--------5-7---5-------|-
A:|-5~-7-8---------7---7-|- X3 til Fade out
E:|----------------------|-


End: 06:22
comments
We did not receive enough feedback on this tab! Please rate:
print report bad tab
1 2 3 4 5
I want to post or [tab]
guest
You may want to rate the tab now too:
select rating
Please do not post tabs as comments. Select "correction" instead!