Oops, an error
Loading. Please wait.

Holiday Tab

version 1
version 1

Solo

Whole song

Interactive

40,142 views 33 this week
1 commentread comment
1 2 3 4 5
x 17
add to favorites
launch autoscroll
font size
0
reset
how to read this tab
guitar tuner
×
Best way to learn
"Holiday"
Autoscroll
slow
fast
+/-
esc
set tempo
stop
Holiday Solo

Listen to recording to hear timings

 [Solo]
e|---------------------------------------------------------------------|
B|---------------------------------------------------------------------|
G|---------------------------------------------------------------------|
D|-----0---3----5/7---------5\2-----------5----------3------5-----5/7--|
A|---------------------------------------------------------------------|
E|---------------------------------------------------------------------|

e|-----------------------------------------------------------|
B|---------------------------------------------------9^---8--|
G|------7---7----9--10-7----------9---10---9-----------------|
D|-----------------------------------------------------------|
A|-----------------------------------------------------------|
E|-----------------------------------------------------------|

e|-------------------------------------------------------------|
B|------5--6--3------5-6---3----5---6---3----------------------|
G|-----------------2---------------------------2---0-----------|
D|-----------------------------------------------------2----3--|
A|-------------------------------------------------------------|
E|-------------------------------------------------------------|

e|-----------------------------------------------------------------------|
B|-------------------------------------------------3------3----5------6--|
G|-------------------------------------------------2-----2---------------|
D|---5----5/7-------5----3---------7--------0----------------------------|
A|-----------------------------------------------------------------------|
E|-----------------------------------------------------------------------|

e|------------------------------------------------|
B|-------8----9^----------------------------------|
G|------------------------------------------------|
D|------------------------------------------------|
A|------------------------------------------------|
E|------------------------------------------------|

************************************

| /  Slide up
| \  Slide down
| ^  bend full tone

************************************
Suggest correction
comments
print report bad tab
1 comment total.
0 reply
biances1431 10 Apr 28, 2016 09:18 PM

i want the last solo bro . till the solo joins rhythm in the middle of the song ?? you have a tabb ??

thankss

guest
You may want to rate the tab now too:
select rating
Wanna post a correction for this tab? Suggest correction