Oops, an error
Loading. Please wait.

Holiday Tab

version 3
version 3

Whole song

Interactive

61,578 views 135 this week
5 commentsread comments
1 2 3 4 5
x 10
add to favorites
launch autoscroll
font size
0
reset
how to read this tab
guitar tuner
Autoscroll
slow
fast
+/-
esc
set tempo
stop
Help us to improve Ultimate-Guitar.com Take our survey!
×
I'm One Of The Scorpions Fans.My Name Is Hassan Nosrat Abadi,But It Isn't Important Beacause

                             *****************************************************************
                             *I'm One Of The Scorpions Fans And This Is Very Important For Me*
                             *****************************************************************


                    ************************************************************************************
                    *It's Really Beautifull Song.One Of The Best Song That We listen Till Now.Isn't It?*
                    ************************************************************************************


                                                       Tabs And Chords
                            **********************************************************************

Song:"Holiday"
Artist:"Scorpions"
Album="Lovedrive"
Lyricist="Klaus Meine"
Composer="Rudolf Schenker"
Tuning="Regular Tuning"
Transcribed by="Hassan Nosrat Abadi"


[Intro Solo] 

(Acoustic Guitar)

e|--------------------|---------------------|--------------------|--------------------|--------------------|
B|--------------------|---------------------|--------------------|--------------------|--------------------|
G|--------------------|---------------------|--------------------|--------------------|--------------------|
D|0-------------------|3--------------------|5/7-----------------|5\2-----------------|-----------------5--|
A|--------------------|---------------------|--------------------|--------------------|--------------------|
E|--------------------|---------------------|--------------------|--------------------|--------------------|

  Dm                   Dm7                   Dm6                  A4                   A' 
e|----1------1------1-|----1------1-------1-|----1------1------1-|----0------0------0-|----5------5------5-|
B|------3------3------|------3------3-------|------3------3------|------3------3------|------5------5------|
G|--------2------2----|--------2------2-----|--------2------2----|--------2------2----|--------2------2----|
D|-0------------------|---------------------|--------------------|--------------------|--------------------|
A|--------------------|-3-------------------|-1------------------|-0------------------|-0------------------|
E|--------------------|---------------------|--------------------|--------------------|--------------------|



e|--------------------|---------------------|--------------------|--------------------|--------------------|
B|--------------------|---------------------|--------------------|--------------------|9^----------8-------|
G|--------------------|------------------7-7|--9--10-7-----------|9---10---9----------|--------------------|
D|3--5-5/7------------|---------------------|--------------------|--------------------|--------------------|
A|--------------------|---------------------|--------------------|--------------------|--------------------|
E|--------------------|---------------------|--------------------|--------------------|--------------------|

 Dm                   Dm7                   Dm6                  A4                   A'  
|----1------1------1-|----1------1-------1-|----1------1------1-|----0------0------0-|----5------5------5-|
|--------2------2----|--------2------2-----|--------2------2----|--------2------2----|--------2------2----|
|-0------------------|---------------------|--------------------|--------------------|--------------------|
|--------------------|-3-------------------|-1------------------|-0------------------|-0------------------|
|--------------------|---------------------|--------------------|--------------------|--------------------|


e|--------------------|---------------------|--------------------|--------------------|--------------------|
B|--5--6--3-----------|----5-6---3----5-----|6---3---------------|--------------------|--------------------|
G|-------------2------|---------------------|---------2---0------|--------------------|--------------------|
D|--------------------|---------------------|--------------------|----2----3-----5----|5/7-------5----3----|
A|--------------------|---------------------|--------------------|--------------------|--------------------|
E|--------------------|---------------------|--------------------|--------------------|--------------------|

  Dm                   Dm7                   Dm6                  A4                   A'  
e|----1------1------1-|----1------1-------1-|----1------1------1-|----0------0------0-|----5------5------5-|
B|------3------3------|------3------3-------|------3------3------|------3------3------|------5------5------|
G|--------2------2----|--------2------2-----|--------2------2----|--------2------2----|--------2------2----|
D|-0------------------|---------------------|--------------------|--------------------|--------------------|
A|--------------------|-3-------------------|-1------------------|-0------------------|-0------------------|
E|--------------------|---------------------|--------------------|--------------------|--------------------|


e|--------------------|---------------------|--------------------|--------------------|--------------------|
B|--------------------|-----3---------------|3----5------6-------|--------8----9^-----|--------------------|
G|--------------------|-2-------2-----------|--------------------|--------------------|--------------------|
D|--------------------|---------------------|--------------------|--------------------|--------------------|
A|7--------0----------|---------------------|--------------------|--------------------|--------------------|
E|--------------------|---------------------|--------------------|--------------------|--------------------|

  Dm                   Dm7                   Dm6                  A4                   A' 
e|----1------1------1-|----1------1-------1-|----1------1------1-|----0------0------0-|----5------5------5-|
B|------3------3------|------3------3-------|------3------3------|------3------3------|------5------5------|
G|--------2------2----|--------2------2-----|--------2------2----|--------2------2----|--------2------2----|
D|-0------------------|---------------------|--------------------|--------------------|--------------------|
A|--------------------|-3-------------------|-1------------------|-0------------------|-0------------------|
E|--------------------|---------------------|--------------------|--------------------|--------------------|


[Verse 1]

  Dm                   Dm                    C                    A                    Dm
e|----1------1------1-|----1------1------1-|----0------0---------|----0------0------0-|----1------1------1-|
B|------3------3------|------3------3------|------1------1-------|------2------2------|------3------3------|
G|--------2------2----|--------2------2----|--------0------------|--------2------2----|--------2------2----|
D|-0------------------|-0------------------|---------------------|--------------------|-0------------------|
A|--------------------|--------------------|-3-------------3--2--|-0------------------|--------------------|
E|--------------------|--------------------|---------------------|--------------------|--------------------|
 Let Me Take You Fa...r Away                 You'd Like A          Ho.........li.........day 


  Dm                   Dm                    C                    A                    Dm
e|----1------1------1-|----1------1------1-|----0------0---------|----0------0------0-|----1------1------1-|
B|------3------3------|------3------3------|------1------1-------|------2------2------|------3------3------|
G|--------2------2----|--------2------2----|--------0------------|--------2------2----|--------2------2----|
D|-0------------------|-0------------------|---------------------|--------------------|-0------------------|
A|--------------------|--------------------|-3-------------3--2--|-0------------------|--------------------|
E|--------------------|--------------------|---------------------|--------------------|--------------------|
 Let Me Take You Fa...r Away                 You'd Like A          Ho.........li.........day           


  Dm                    C                   Dm
e|----1------1------1-|----0------0---------|----1------1------1-|
B|------3------3------|------1------1-------|------3------3------|
G|--------2------2----|--------0------------|--------2------2----|
D|-0------------------|---------------------|-0------------------|
A|--------------------|-3-------------3--2--|--------------------|
E|--------------------|---------------------|--------------------|
 Excha..........nge  The Cold Da.......ys For The Sun


  G                    G                    C                    C 
e|----3------3------3-|----3------3------3-|----0------0---------|----0------0---------|
B|------0------0------|------0------0------|------1------1-------|------1------1-------|
G|--------0------0----|--------0------0----|--------0------------|--------0------------|
D|--------------------|--------------------|---------------------|---------------------|
A|--------------------|--------------------|-3-------------3--2--|-3-------------3--2--|
E|-3------------------|-3------------------|---------------------|---------------------|
 Good Ti..............................mes And Fu.................n


  Dm                   Dm                    C                    A                    Dm
e|----1------1------1-|----1------1------1-|----0------0---------|----0------0------0-|----1------1------1-|
B|------3------3------|------3------3------|------1------1-------|------2------2------|------3------3------|
G|--------2------2----|--------2------2----|--------0------------|--------2------2----|--------2------2----|
D|-0------------------|-0------------------|---------------------|--------------------|-0------------------|
A|--------------------|--------------------|-3-------------3--2--|-0------------------|--------------------|
E|--------------------|--------------------|---------------------|--------------------|--------------------|
 Let Me Takes And Fu............nd         You'd Like A            Ho.........li........day 


[Rhythm Under Solo]

  Dm                   Dm7                   Dm6                  A4                   A' 
e|----1------1------1-|----1------1-------1-|----1------1------1-|----0------0------0-|----5------5------5-|
B|------3------3------|------3------3-------|------3------3------|------3------3------|------5------5------|
G|--------2------2----|--------2------2-----|--------2------2----|--------2------2----|--------2------2----|
D|-0------------------|---------------------|--------------------|--------------------|--------------------|
A|--------------------|-3-------------------|-1------------------|-0------------------|-0------------------|
E|--------------------|---------------------|--------------------|--------------------|--------------------|


[Verse 2]

  Dm                   Dm                    C                    A                    Dm
e|----1------1------1-|----1------1------1-|----0------0---------|----0------0------0-|----1------1------1-|
B|------3------3------|------3------3------|------1------1-------|------2------2------|------3------3------|
G|--------2------2----|--------2------2----|--------0------------|--------2------2----|--------2------2----|
D|-0------------------|-0------------------|---------------------|--------------------|-0------------------|
A|--------------------|--------------------|-3-------------3--2--|-0------------------|--------------------|
E|--------------------|--------------------|---------------------|--------------------|--------------------|
 Let Me Take You Fa...r Away                 You'd Like A          Ho.........li.........day 


  Dm                   Dm                    C                    A                    Dm
e|----1------1------1-|----1------1------1-|----0------0---------|----0------0------0-|----1------1------1-|
B|------3------3------|------3------3------|------1------1-------|------2------2------|------3------3------|
G|--------2------2----|--------2------2----|--------0------------|--------2------2----|--------2------2----|
D|-0------------------|-0------------------|---------------------|--------------------|-0------------------|
A|--------------------|--------------------|-3-------------3--2--|-0------------------|--------------------|
E|--------------------|--------------------|---------------------|--------------------|--------------------|
 Let Me Take You Fa...r Away                 You'd Like A          Ho.........li.........day       


  Dm                    C                   Dm
e|----1------1------1-|----0------0---------|----1------1------1-|
B|------3------3------|------1------1-------|------3------3------|
G|--------2------2----|--------0------------|--------2------2----|
D|-0------------------|---------------------|-0------------------|
A|--------------------|-3-------------3--2--|--------------------|
E|--------------------|---------------------|--------------------|
 Excha..........nge  Your Troub.......les For Some Love


  G                    G                    C                    C 
e|----3------3------3-|----3------3------3-|----0------0---------|----0------0---------|
B|------0------0------|------0------0------|------1------1-------|------1------1-------|
G|--------0------0----|--------0------0----|--------0------------|--------0------------|
D|--------------------|--------------------|---------------------|---------------------|
A|--------------------|--------------------|-3-------------3--2--|-3-------------3--2--|
E|-3------------------|-3------------------|---------------------|---------------------|
 Whereve................................r You Are



  Dm                   Dm                    C                    A                    D
e|----1------1------1-|----1------1------1-|----0------0---------|----0------0------0-|----1------1------1-|
B|------3------3------|------3------3------|------1------1-------|------2------2------|------3------3------|
G|--------2------2----|--------2------2----|--------0------------|--------2------2----|--------2------2----|
D|-0------------------|-0------------------|---------------------|--------------------|-0------------------|
A|--------------------|--------------------|-3-------------3--2--|-0------------------|--------------------|
E|--------------------|--------------------|---------------------|--------------------|--------------------|
 Let Me Take You Fa...r Away                 You'd Like A          Ho.........li.........day 


  Dm                   Dm7                   Dm6                  A4                   A' 
e|----1------1------1-|----1------1-------1-|----1------1------1-|----0------0------0-|----5------5------5-|
B|------3------3------|------3------3-------|------3------3------|------3------3------|------5------5------|
G|--------2------2----|--------2------2-----|--------2------2----|--------2------2----|--------2------2----|
D|-0------------------|---------------------|--------------------|--------------------|--------------------|
A|--------------------|-3-------------------|-1------------------|-0------------------|-0------------------|
E|--------------------|---------------------|--------------------|--------------------|--------------------|
 Oh.......................Oooh.............................Ooh...........................Ooh


  Dm                   Dm7                   Dm6                  A4                   A' 
e|----1------1------1-|----1------1-------1-|----1------1------1-|----0------0------0-|----5------5------5-|
B|------3------3------|------3------3-------|------3------3------|------3------3------|------5------5------|
G|--------2------2----|--------2------2-----|--------2------2----|--------2------2----|--------2------2----|
D|-0------------------|---------------------|--------------------|--------------------|--------------------|
A|--------------------|-3-------------------|-1------------------|-0------------------|-0------------------|
E|--------------------|---------------------|--------------------|--------------------|--------------------|
 Oh........................Ooh.............................Ooh...........................Ooh


  Dm                   Dm7                   Dm6                  A4                   A' 
e|----1------1------1-|----1------1-------1-|----1------1------1-|----0------0------0-|----5------5------5-|
B|------3------3------|------3------3-------|------3------3------|------3------3------|------5------5------|
G|--------2------2----|--------2------2-----|--------2------2----|--------2------2----|--------2------2----|
D|-0------------------|---------------------|--------------------|--------------------|--------------------|
A|--------------------|-3-------------------|-1------------------|-0------------------|-0------------------|
E|--------------------|---------------------|--------------------|--------------------|--------------------|
 Oh........................Ooh.............................Ooh...........................Ooh


[Verse 3]

  Dm                  Dm                   C                 Bb 
e|---------1---------|---------1---------|---------0---------|--------1--------|
B|---------3---------|---------3---------|---------1---------|--------3--------|
G|---------2---------|---------2---------|---------0---------|--------3--------|
D|---------0---------|---------0---------|---------2---------|--------3--------|
A|---------0---------|---------0---------|---------3---------|--------1--------|
E|-------------------|-------------------|-------------------|--------1--------|
 Longing For The Sun    You Will Come      To The Island        Without Name


  Dm                  Dm                   C                 Bb 
e|---------1---------|---------1---------|---------0---------|--------1--------|
B|---------3---------|---------3---------|---------1---------|--------3--------|
G|---------2---------|---------2---------|---------0---------|--------3--------|
D|---------0---------|---------0---------|---------2---------|--------3--------|
A|---------0---------|---------0---------|---------3---------|--------1--------|
E|-------------------|-------------------|-------------------|--------1--------|
 Longing For The Sun      Be Welcome       On The Island      Many Miles Away 
 From Home


 Dm                  Dm                   C                 Bb 
e|---------1---------|---------1---------|---------0---------|--------1--------|
B|---------3---------|---------3---------|---------1---------|--------3--------|
G|---------2---------|---------2---------|---------0---------|--------3--------|
D|---------0---------|---------0---------|---------2---------|--------3--------|
A|---------0---------|---------0---------|---------3---------|--------1--------|
E|-------------------|-------------------|-------------------|--------1--------|
 Be welcome        On The Island      Without Name


  Dm                  Dm                   C                 Bb 
e|---------1---------|---------1---------|---------0---------|--------1--------|
B|---------3---------|---------3---------|---------1---------|--------3--------|
G|---------2---------|---------2---------|---------0---------|--------3--------|
D|---------0---------|---------0---------|---------2---------|--------3--------|
A|---------0---------|---------0---------|---------3---------|--------1--------|
E|-------------------|-------------------|-------------------|--------1--------|
 Longing For The Sun      Be Welcome       On The Island      Many Miles Away 
 From Home


  Dm                  Dm                   C                 Bb 
e|---------1---------|---------1---------|---------0---------|--------1--------|
B|---------3---------|---------3---------|---------1---------|--------3--------|
G|---------2---------|---------2---------|---------0---------|--------3--------|
D|---------0---------|---------0---------|---------2---------|--------3--------|
A|---------0---------|---------0---------|---------3---------|--------1--------|
E|-------------------|-------------------|-------------------|--------1--------|
 Away From Home...


  Dm                  Dm                   C                 Bb 
e|---------1---------|---------1---------|---------0---------|--------1--------|
B|---------3---------|---------3---------|---------1---------|--------3--------|
G|---------2---------|---------2---------|---------0---------|--------3--------|
D|---------0---------|---------0---------|---------2---------|--------3--------|
A|---------0---------|---------0---------|---------3---------|--------1--------|
E|-------------------|-------------------|-------------------|--------1--------|
 Away From Home...


Rhythm Under Solo (Repeat Till End Of Song)


  Dm                    Dm7                 Dm6                  A4                    A' 
e|----1------1------1-|----1------1-------1-|----1------1------1-|----0------0------0-|----5------5------5-|
B|------3------3------|------3------3-------|------3------3------|------3------3------|------5------5------|
G|--------2------2----|--------2------2-----|--------2------2----|--------2------2----|--------2------2----|
D|-0------------------|---------------------|--------------------|--------------------|--------------------|
A|--------------------|-3-------------------|-1------------------|-0------------------|-0------------------|
E|--------------------|---------------------|--------------------|--------------------|--------------------|


********************************************************
*One Of The Best Song That We listen Till Now.Yes It Is*
********************************************************



************************************

| /  Slide up
| \  Slide down

************************************
Suggest correction
comments
print report bad tab
5 comments total. Showing first comments.
0 reply
andreas5 793 Dec 23, 2005 09:50 AM

real good job !! awesome tab , jsut one thing , the last solo ? why didnt you post that ?

0 reply
musiclover 2 1,303 Feb 18, 2006 06:21 AM

it's good idea,but it takes time,and i make it as soon as possible!!!

0 reply
ibanezwayne 10 Jun 26, 2006 11:55 PM

good tab

guest
You may want to rate the tab now too:
select rating
Wanna post a correction for this tab? Suggest correction