Oops, an error
Loading. Please wait.

Humanity Hour 1 Tab

9,397 views 9 this week
3 commentsread comments
1 2 3 4 5
excellent!
x 4
add to favorites
launch autoscroll
font size
0
reset
how to read this tab
guitar tuner
Tab Pro tools
  • play this tab
  • loop segment
  • change instrument
  • show fretboard
  • metronome
Autoscroll
slow
fast
+/-
esc
set tempo
stop
Contributor

Artist:Scorpions

Album:Humanity:Hour 1       Tabbed By:ELIAS STASI


Songs:

1.)Hour 1(whole song)
2.)The Game Of Life(intro+solo)
3.)We Were Born To Fly(whole song)
4.)The Future Never Dies(whole song)
5.)You're Lovin' Me To Death(whole song-no solo)
6.)321(Whole song)
7.)Love Will Keep Us Alive(intro)
8.)We Will Rise Again(chords)
9.)Your Last Song(whole song-no solo)
10.)Love Is War(none)-(sorry)
11.)The Cross(none)-(sorry)
12.)Humanity(whole song)

HOUR 1:


Tune to drop c#.

intro
d#|-----------------------|
A#|-----------------------|
F#|-----------------------|
C#|-0-0-0-0-0-0-0-5-0-3---|
G#|-0-0-0-0-0-0-0-5-0-3---|
C#|-0-0-0-0-0-0-0-5-0-3---|
    X X X X X X X

riff 2
d#|----------------|-----------------|
A#|------x3--------|-----------------|
F#|----------------|-----------------|
C#|-6-0---0-3-0-5--|-6-0---0-3-0-1---|
G#|-6-0---0-3-0-5--|-6-0---0-3-0-1---|
C#|-6-0---0-3-0-5--|-6-0---0-3-0-1---|

verse
d#|---------------------|----------------------|
A#|---------------------|----------------------|
F#|---------------------|----------------------|
C#|-0-0-0-0-0-0-0-5-0-3-|-0-0-0-0-0-0-0-3-0-1--|
G#|-0-0-0-0-0-0-0-5-0-3-|-0-0-0-0-0-0-0-3-0-1--|
C#|-0-0-0-0-0-0-0-5-0-3-|-0-0-0-0-0-0-0-3-0-1--|
    x x x x x x           x x x x x x

chorus
it used the riff 2 but there's 2nd guitar plays d# string like this;
d#|-12--------10---|-12-------15-----|
A#|----x3----------|-----------------|
F#|----------------|-----------------|
C#|-6-0---0-3-0-5--|-6-0---0-3-0-1---|
G#|-6-0---0-3-0-5--|-6-0---0-3-0-1---|
C#|-6-0---0-3-0-5--|-6-0---0-3-0-1---|
* the d# string id played continuously, not once!

riff 3 (bridge) x4

d#|-------------------------------------|
A#|-------------------------------------|
F#|-------------------------------------|
C#|---------------------------0-3-0-1---|
G#|---8-8-8-7-7-7-6-6-6-5-5-5-0-3-0-1---|
C#|---------------------------0-3-0-1---|
gtr2
d#|-------------------------------------|
A#|---------7-7-7-9-9-9-111111----------|  <= this part hears on 3rd repeat
F#|---1010109-9-9-8-8-8-7-7-7-----------|
C#|-------------------------------------|
G#|-------------------------------------|
C#|-------------------------------------|

solo = chorus x4


THE GAME OF LIFE:

intro

l-16--16h10-------14-11---15-15-15---12--14--12--------10--12--10-----------|
l---------------13------------------------------10--12------------10--11----|
l---------------------------------------------------------------------------|
l---------------------------------------------------------------------------|
l---------------------------------------------------------------------------|
l---------------------------------------------------------------------------|


solo:

l-16--16h10-------14-11---15-15-15---12--14--12--------10--12--10-----------|
l---------------13------------------------------10--12------------10--11----|
l---------------------------------------------------------------------------|
l---------------------------------------------------------------------------|
l---------------------------------------------------------------------------|
l---------------------------------------------------------------------------|

l----------------------------------------------------------------------------|
l----------------------------------------------------------------------------|
l-7-7-7--9-----5-5-5-7-----9-9-9-10-----7-7-7-9-----5-5-5-7---5-7-5-7--------|
l-7-7-7--9-----5-5-5-7-----9-9-9-10-----7-7-7-9-----5-5-5-7---5-7-5-7--5-7-9-|
l----------------------------------------------------------------------------|
l----------------------------------------------------------------------------|



WE WERE BORN TO FLY:


Guitar 1:


             E.  E.  E.  E.  E.  E.  E.  E.
D||-------|----------------------------------|
A||-------|----------------------------------|
F||-------|----------------------------------|
C||-------|--6---6---6---6---6---6---6---6---|
G||-------|--4---4---4---4---4---4---4---4---|
D||-------|--4---4---4---4---4---4---4---4---|


  E.  E.  E.  E.  E.  E.  E.  E.     E.  E.  E.  E.  E.  E.  E.  E.
----------------------------------|----------------------------------|
----------------------------------|----------------------------------|
----------------------------------|----------------------------------|
--6---6---6---6---6---6---6---6---|--6---6---6---6---6---6---6---6---|
--4---4---4---4---4---4---4---4---|--6---6---6---6---6---6---6---6---|
--4---4---4---4---4---4---4---4---|--4---4---4---4---4---4---4---4---|


  E.  E.  E.  E.  E.  E.  E.  E.     E.  E.  E.  E.  E.  E.  E.  E.
----------------------------------|----------------------------------|
----------------------------------|----------------------------------|
----------------------------------|----------------------------------|
--6---6---6---6---6---6---6---6---|--6---6---6---6---6---6---6---6---|
--6---6---6---6---6---6---6---6---|--4---4---4---4---4---4---4---4---|
--4---4---4---4---4---4---4---4---|--4---4---4---4---4---4---4---4---|


  E.  E.  E.  E.  E.  E.  E.  E.     E.  E.  E.  E.  E.  E.  E.  E.
----------------------------------|----------------------------------|
----------------------------------|----------------------------------|
----------------------------------|----------------------------------|
--6---6---6---6---6---6---6---6---|--6---6---6---6---6---6---6---6---|
--4---4---4---4---4---4---4---4---|--6---6---6---6---6---6---6---6---|
--4---4---4---4---4---4---4---4---|--4---4---4---4---4---4---4---4---|


  Q    Q    Q    Q    Q    Q       Q    Q    Q    Q    Q    Q
--------------------------------|--------------------------------|-------|
--------------------------------|--------------------------------|-------|
--------------------------------|--------------------------------|-------|
--6------------------------L----|---------------------------L----|-------|
--6------------------------L----|---------------------------L----|-------|
--4------------------------L----|---------------------------L----|-------|


          E.  E.  E.  E.  E.  E.  E.  E.     Q    Q    Q    Q    Q    Q
-------|----------------------------------|--------------------------------|
-------|----------------------2-----------|--------------------------------|
-------|----------4-----------------------|--------------------------------|
-------|------2-----------4---------------|--------------------------------|
-------|--0-----------2-----------4-------|---------------------------L----|
-------|----------------------------------|--------------------------------|


                  E.  E.  E.  E.  E.  E.  E.  E.
-------|-------|----------------------------------|
-------|-------|----------------------2-------L---|
-------|-------|----------4-----------------------|
-------|-------|------2-----------4---------------|
-------|-------|--0-----------2-------------------|
-------|-------|----------------------------------|


  E.  E.  E.  E.  E.  E.  E.  E.     E.  E.  E.  E.  E.  E.  E.  E.
----------------------------------|----------------------------------|
----------5---------------4-------|----------2---------------2-------|
----------6---------------4-------|--------------------------2-------|
------6-------6-------4-------4---|------2-------2-------2-------2---|
--4---------------2---------------|--0---------------0---------------|
----------------------------------|----------------------------------|


  E.  E.  E.  E.  E.  E.  E.  E.     E.  E.  E.  E.  E.  E.  E.  E.
----------------------------------|----------------------------------|
----------5---------------4-------|----------2---------------2-------|
----------6---------------4-------|--------------------------2-------|
------6-------6-------4-------4---|------2-------2-------2-------2---|
--4---------------2---------------|--0---------------0---------------|
----------------------------------|----------------------------------|


  E.  E.  E.  E.  E.  E.  E.  E.     E.  E.  E.  E.  E.  E.  E.  E.
----------------------------------|----------------------------------|
----------------------------------|----------------------------------|
----------------------------------|----------------------------------|
--6---6---6---6---6---------------|--6---6---6---6---6---6---6---6---|
--6---6---6---6---6---------------|--4---4---4---4---4---4---4---4---|
--4---4---4---4---4---------------|--4---4---4---4---4---4---4---4---|


  E.  E.  E.  E.  E.  E.  E.  E.     E.  E.  E.  E.  E.  E.  E.  E.
----------------------------------|----------------------------------|
----------------------------------|----------------------------------|
----------------------------------|----------------------------------|
--6---6---6---6---6---6---6---6---|--7---7---7---7---7---7---7---7---|
--4---4---4---4---4---4---4---4---|--7---7---7---7---7---7---7---7---|
--4---4---4---4---4---4---4---4---|--5---5---5---5---5---5---5---5---|


  E.  E.  E.  E.  E.  E.  E.  E.     E.  E.  E.  E.  E.  E.  E.  E.
----------------------------------|----------------------------------|
----------------------------------|----------------------------------|
----------------------------------|----------------------------------|
--4---4---4---4---4---4---4---4---|--6---6---6---6---6---6---6---6---|
--4---4---4---4---4---4---4---4---|--4---4---4---4---4---4---4---4---|
--2---2---2---2---2---2---2---2---|--4---4---4---4---4---4---4---4---|


  E.  E.  E.  E.  E.  E.  E.  E.     E.  E.  E.  E.  E.  E.  E.  E.
----------------------------------|----------------------------------|
----------------------------------|----------------------------------|
----------------------------------|----------------------------------|
--6---6---6---6---6---6---6---6---|--7---7---7---7---7---7---7---7---|
--4---4---4---4---4---4---4---4---|--7---7---7---7---7---7---7---7---|
--4---4---4---4---4---4---4---4---|--5---5---5---5---5---5---5---5---|


  E.  E.  E.  E.  E.  E.  E.  E.     E.  E.  E.  E.  E.  E.  E.  E.
----------------------------------|----------------------------------|
----------------------------------|----------------------------------|
----------------------------------|----------------------------------|
--4---4---4---4---4---4---4---4---|--6---6---6---6---6---6---6---6---|
--4---4---4---4---4---4---4---4---|--4---4---4---4---4---4---4---4---|
--2---2---2---2---2---2---2---2---|--4---4---4---4---4---4---4---4---|


  E.  E.  E.  E.  E.  E.  E.  E.     E.  E.  E.  E.  E.  E.  E.  E.
----------------------------------|----------------------------------|
----------------------------------|----------------------------------|
----------------------------------|----------------------------------|
--6---6---6---6---6---6---6---6---|--6---6---6---6---6---6---6---6---|
--4---4---4---4---4---4---4---4---|--6---6---6---6---6---6---6---6---|
--4---4---4---4---4---4---4---4---|--4---4---4---4---4---4---4---4---|


  Q    Q    Q    Q    Q    Q       Q    Q    Q    Q    Q    Q
--------------------------------|--------------------------------|-------|
--------------------------------|--------------------------------|-------|
--------------------------------|--------------------------------|-------|
--6------------------------L----|---------------------------L----|-------|
--6------------------------L----|---------------------------L----|-------|
--4------------------------L----|---------------------------L----|-------|


          E.  E.  E.  E.  E.  E.  E.  E.     Q    Q    Q    Q    Q    Q
-------|----------------------------------|--------------------------------|
-------|----------------------2-----------|--------------------------------|
-------|----------4-----------------------|--------------------------------|
-------|------2-----------4---------------|--------------------------------|
-------|--0-----------2-----------4-------|---------------------------L----|
-------|----------------------------------|--------------------------------|


                  E.  E.  E.  E.  E.  E.  E.  E.
-------|-------|----------------------------------|
-------|-------|----------------------2-------L---|
-------|-------|----------4-----------------------|
-------|-------|------2-----------4---------------|
-------|-------|--0-----------2-------------------|
-------|-------|----------------------------------|


  E.  E.  E.  E.  E.  E.  E.  E.     E.  E.  E.  E.  E.  E.  E.  E.
----------------------------------|----------------------------------|
----------5---------------4-------|----------2---------------2-------|
----------6---------------4-------|--------------------------2-------|
------6-------6-------4-------4---|------2-------2-------2-------2---|
--4---------------2---------------|--0---------------0---------------|
----------------------------------|----------------------------------|


  E.  E.  E.  E.  E.  E.  E.  E.     E.  E.  E.  E.  E.  E.  E.  E.
----------------------------------|----------------------------------|
----------5---------------4-------|----------2---------------2-------|
----------6---------------4-------|--------------------------2-------|
------6-------6-------4-------4---|------2-------2-------2-------2---|
--4---------------2---------------|--0---------------0---------------|
----------------------------------|----------------------------------|


  E.  E.  E.  E.  E.  E.  E.  E.     E.  E.  E.  E.  E.  E.  E.  E.
----------------------------------|----------------------------------|
----------------------------------|----------------------------------|
----------------------------------|----------------------------------|
--6---6---6---6---6---------------|--6---6---6---6---6---6---6---6---|
--6---6---6---6---6---------------|--4---4---4---4---4---4---4---4---|
--4---4---4---4---4---------------|--4---4---4---4---4---4---4---4---|


  E.  E.  E.  E.  E.  E.  E.  E.     E.  E.  E.  E.  E.  E.  E.  E.
----------------------------------|----------------------------------|
----------------------------------|----------------------------------|
----------------------------------|----------------------------------|
--6---6---6---6---6---6---6---6---|--7---7---7---7---7---7---7---7---|
--4---4---4---4---4---4---4---4---|--7---7---7---7---7---7---7---7---|
--4---4---4---4---4---4---4---4---|--5---5---5---5---5---5---5---5---|


  E.  E.  E.  E.  E.  E.  E.  E.     E.  E.  E.  E.  E.  E.  E.  E.
----------------------------------|----------------------------------|
----------------------------------|----------------------------------|
----------------------------------|----------------------------------|
--4---4---4---4---4---4---4---4---|--6---6---6---6---6---6---6---6---|
--4---4---4---4---4---4---4---4---|--4---4---4---4---4---4---4---4---|
--2---2---2---2---2---2---2---2---|--4---4---4---4---4---4---4---4---|


  E.  E.  E.  E.  E.  E.  E.  E.     E.  E.  E.  E.  E.  E.  E.  E.
----------------------------------|----------------------------------|
----------------------------------|----------------------------------|
----------------------------------|----------------------------------|
--6---6---6---6---6---6---6---6---|--7---7---7---7---7---7---7---7---|
--4---4---4---4---4---4---4---4---|--7---7---7---7---7---7---7---7---|
--4---4---4---4---4---4---4---4---|--5---5---5---5---5---5---5---5---|


  S. S. S. S. S. S. S. S. S. S. S. S. S. S. S. S.
--------------------------------------------------|
--------------------------------------------------|
--------------------------------------------------|
--------------------------------------------------|
-----4--4-----4--4-----4--4-----4-----4-----4-----|
--0--2--2--0--2--2--0--2--2--0--2--0--2--0--2--0--|


  E.  E.  E.  E.  E.  E.  E.  E.     E.  E.  E.  E.  E.  E.  E.  E.
----------------------------------|----------------------------------|
----------------------------------|----------------------------------|
----------------------------------|----------------------------------|
--6---6---6---6---6---6---6---6---|--6---6---6---6---6---6---6---6---|
--4---4---4---4---4---4---4---4---|--4---4---4---4---4---4---4---4---|
--4---4---4---4---4---4---4---4---|--4---4---4---4---4---4---4---4---|


  E.  E.  E.  E.  E.  E.  E.  E.     E.  E.  E.  E.  E.  E.  E.  E.
----------------------------------|----------------------------------|
----------------------------------|----------------------------------|
----------------------------------|----------------------------------|
--6---6---6---6---6---6---6---6---|--6---6---6---6---6---6---6---6---|
--6---6---6---6---6---6---6---6---|--6---6---6---6---6---6---6---6---|
--4---4---4---4---4---4---4---4---|--4---4---4---4---4---4---4---4---|


  E.  E.  E.  E.  E.  E.  E.  E.     E.  E.  E.  E.  E.  E.  E.  E.
----------------------------------|----------------------------------|
----------------------------------|----------------------------------|
----------------------------------|----------------------------------|
--6---6---6---6---6---6---6---6---|--6---6---6---6---6---6---6---6---|
--4---4---4---4---4---4---4---4---|--4---4---4---4---4---4---4---4---|
--4---4---4---4---4---4---4---4---|--4---4---4---4---4---4---4---4---|


  E.  E.  E.  E.  E.  E.  E.  E.     E.  E.  E.  E.  E.  E.  E.  E.
----------------------------------|----------------------------------|
----------------------------------|----------------------------------|
----------------------------------|----------------------------------|
--6---6---6---6---6---6---6---6---|--6---6---6---6---6---6---6---6---|
--6---6---6---6---6---6---6---6---|--6---6---6---6---6---6---6---6---|
--4---4---4---4---4---4---4---4---|--4---4---4---4---4---4---4---4---|


  E.  E.  E.  E.  E.  E.  E.  E.     E.  E.  E.  E.  E.  E.  E.  E.
----------------------------------|----------------------------------|
----------------------------------|----------------------------------|
----------------------------------|----------------------------------|
--2---2---2---2---2---2---2---2---|--6---6---6---6---6---6---6---6---|
--2---2---2---2---2---2---2---2---|--4---4---4---4---4---4---4---4---|
--0---0---0---0---0---0---0---0---|--4---4---4---4---4---4---4---4---|


  E.  E.  E.  E.  E.  E.  E.  E.     E.  E.  E.  E.  E.  E.  E.  E.
----------------------------------|----------------------------------|
----------------------------------|----------------------------------|
----------------------------------|----------------------------------|
--7---7---7---7---7---7---7---7---|--4---------------------------L---|
--7---7---7---7---7---7---7---7---|--4---------------------------L---|
--5---5---5---5---5---5---5---5---|--2---------------------------L---|


  E.  E.  E.  E.  E.  E.  E.  E.     E.  E.  E.  E.  E.  E.  E.  E.
----------------------------------|----------------------------------|
----------------------------------|----------------------------------|
----------------------------------|----------------------------------|
--------------L-------------------|--6---6---6---6---6---6---6---6---|
--------------L-------------------|--4---4---4---4---4---4---4---4---|
--------------L-------------------|--4---4---4---4---4---4---4---4---|


  E.  E.  E.  E.  E.  E.  E.  E.     E.  E.  E.  E.  E.  E.  E.  E.
----------------------------------|----------------------------------|
----------------------------------|----------------------------------|
----------------------------------|----------------------------------|
--6---6---6---6---6---6---6---6---|--7---7---7---7---7---7---7---7---|
--4---4---4---4---4---4---4---4---|--7---7---7---7---7---7---7---7---|
--4---4---4---4---4---4---4---4---|--5---5---5---5---5---5---5---5---|


  E.  E.  E.  E.  E.  E.  E.  E.     E.  E.  E.  E.  E.  E.  E.  E.
----------------------------------|----------------------------------|
----------------------------------|----------------------------------|
----------------------------------|----------------------------------|
--4---4---4---4---4---4---4---4---|--6---6---6---6---6---6---6---6---|
--4---4---4---4---4---4---4---4---|--4---4---4---4---4---4---4---4---|
--2---2---2---2---2---2---2---2---|--4---4---4---4---4---4---4---4---|


  E.  E.  E.  E.  E.  E.  E.  E.     E.  E.  E.  E.  E.  E.  E.  E.
----------------------------------|----------------------------------|
----------------------------------|----------------------------------|
----------------------------------|----------------------------------|
--6---6---6---6---6---6---6---6---|--7---7---7---7---7---7---7---7---|
--4---4---4---4---4---4---4---4---|--7---7---7---7---7---7---7---7---|
--4---4---4---4---4---4---4---4---|--5---5---5---5---5---5---5---5---|


  E.  E.  E.  E.  E.  E.  E.  E.     E.  E.  E.  E.  E.  E.  E.  E.
----------------------------------|----------------------------------|
----------------------------------|----------------------------------|
----------------------------------|----------------------------------|
--4---4---4---4---4---4---4---4---|--6---6---6---6---6---6---6---6---|
--4---4---4---4---4---4---4---4---|--4---4---4---4---4---4---4---4---|
--2---2---2---2---2---2---2---2---|--4---4---4---4---4---4---4---4---|


  E.  E.  E.  E.  E.  E.  E.  E.     E.  E.  E.  E.  E.  E.  E.  E.
----------------------------------|----------------------------------|
----------------------------------|----------------------------------|
----------------------------------|----------------------------------|
--6---6---6---6---6---6---6---6---|--7---7---7---7---7---7---7---7---|
--4---4---4---4---4---4---4---4---|--7---7---7---7---7---7---7---7---|
--4---4---4---4---4---4---4---4---|--5---5---5---5---5---5---5---5---|


  E.  E.  E.  E.  E.  E.  E.  E.     E.  E.  E.  E.  E.  E.  E.  E.
----------------------------------|----------------------------------|
----------------------------------|----------------------------------|
----------------------------------|----------------------------------|
--4---4---4---4---4---4---4---4---|--6---6---6---6---6---6---6---6---|
--4---4---4---4---4---4---4---4---|--4---4---4---4---4---4---4---4---|
--2---2---2---2---2---2---2---2---|--4---4---4---4---4---4---4---4---|


  E.  E.  E.  E.  E.  E.  E.  E.     E.  E.  E.  E.  E.  E.  E.  E.
----------------------------------|----------------------------------|
----------------------------------|----------------------------------|
----------------------------------|----------------------------------|
--6---6---6---6---6---6---6---6---|--7---7---7---7---7---7---7---7---|
--4---4---4---4---4---4---4---4---|--7---7---7---7---7---7---7---7---|
--4---4---4---4---4---4---4---4---|--5---5---5---5---5---5---5---5---|


  S. S. S. S. S. S. S. S. S. S. S. S. S. S. S. S.
--------------------------------------------------|
--------------------------------------------------|
--------------------------------------------------|
--------------------------------------------------|
-----4--4-----4--4-----4--4-----4-----4-----4-----|
--0--2--2--0--2--2--0--2--2--0--2--0--2--0--2--0--|


  E.  E.  E.  E.  E.  E.  E.  E.     E.  E.  E.  E.  E.  E.  E.  E.
----------------------------------|----------------------------------|
----------------------------------|----------------------------------|
----------------------------------|----------------------------------|
--6---6---6---6---6---6---6---6---|--6---6---6---6---6---6---6---6---|
--4---4---4---4---4---4---4---4---|--4---4---4---4---4---4---4---4---|
--4---4---4---4---4---4---4---4---|--4---4---4---4---4---4---4---4---|


  E.  E.  E.  E.  E.  E.  E.  E.     E.  E.  E.  E.  E.  E.  E.  E.
----------------------------------|----------------------------------|
----------------------------------|----------------------------------|
----------------------------------|----------------------------------|
--6---6---6---6---6---6---6---6---|--6---6---6---6---6---6---6---6---|
--6---6---6---6---6---6---6---6---|--6---6---6---6---6---6---6---6---|
--4---4---4---4---4---4---4---4---|--4---4---4---4---4---4---4---4---|


  E.  E.  E.  E.  E.  E.  E.  E.     E.  E.  E.  E.  E.  E.  E.  E.
----------------------------------|----------------------------------|
----------------------------------|----------------------------------|
----------------------------------|----------------------------------|
--6---6---6---6---6---6---6---6---|--6---6---6---6---6---6---6---6---|
--4---4---4---4---4---4---4---4---|--4---4---4---4---4---4---4---4---|
--4---4---4---4---4---4---4---4---|--4---4---4---4---4---4---4---4---|


  E.  E.  E.  E.  E.  E.  E.  E.     E.  E.  E.  E.  E.  E.  E.  E.
----------------------------------|----------------------------------|
----------------------------------|----------------------------------|
----------------------------------|----------------------------------|
--6---6---6---6---6---6---6---6---|--6---6---6---6---6---6---6---6---|
--6---6---6---6---6---6---6---6---|--6---6---6---6---6---6---6---6---|
--4---4---4---4---4---4---4---4---|--4---4---4---4---4---4---4---4---|


  >   >   >   >   >   >   >   >
  E.  E.  E.  E.  E.  E.  E.  E.
----------------------------------|------||
----------------------------------|------||
----------------------------------|------||
--6---6---6---6---6---6---6---6---|------||
--4---4---4---4---4---4---4---4---|------||
--4---4---4---4---4---4---4---4---|------||



Guitar 2:

              E   E  E  E   S  S   E  E  E  E  E  E  E
D||-------|--12-------------L-11---------------------L--|
A||-------|--15b------------L-14b~-------------------L--|
F||-------|---------------------------------------------|
C||-------|---------------------------------------------|
G||-------|---------------------------------------------|
D||-------|---------------------------------------------|


   E   E  E  E   S  S   E  E  E  E  E  E  E
--12-------------L-11---------------------L--|
--15b------------L-14b~-------------------L--|
---------------------------------------------|
---------------------------------------------|
---------------------------------------------|
---------------------------------------------|


   E   E  E  E   S  S   E  E  E  E  E  E  E
---------------------------------------------|
--14-------------L-12---------------------L--|
--16b------------L-14b~-------------------L--|
---------------------------------------------|
---------------------------------------------|
---------------------------------------------|


   E   E  E  E   S  S   E  E  E  E  E  E  E
---------------------------------------------|
--11-------------L--9---------------------L--|
--13b------------L-11b~-------------------L--|
---------------------------------------------|
---------------------------------------------|
---------------------------------------------|


   E   E  E  E   S  S   E  E  E  E  E  E  E
--12-------------L-11---------------------L--|
--15b------------L-14b~-------------------L--|
---------------------------------------------|
---------------------------------------------|
---------------------------------------------|
---------------------------------------------|


   E   E  E  E   S  S   E  E  E  E  E  E  E
--12-------------L-11---------------------L--|
--15b------------L-14b~-------------------L--|
---------------------------------------------|
---------------------------------------------|
---------------------------------------------|
---------------------------------------------|


   E   E  E  E   S  S   E  E  E  E  E  E  E
---------------------------------------------|
--14-------------L-12---------------------L--|
--16b------------L-14b~-------------------L--|
---------------------------------------------|
---------------------------------------------|
---------------------------------------------|


   E    E  E  E  E  E  E  E  E  E  E   E       Q     Q    Q    Q    Q    Q
------------------------------------------|---------------------------------|
--11-----------------------------------L--|---------------------------------|
--13b~---------------------------------L--|--(13)------------------------L--|
------------------------------------------|---------------------------------|
------------------------------------------|---------------------------------|
------------------------------------------|---------------------------------|

          E.  E.  E.  E.  E.  E.  E.  E.     E.  E.  E.  E.  E.  E.  E.  E.
-------|----------------------------------|---------------------------------|
-------|----------------------------------|--4-------L----------------------|
-------|------------------------------6---|--------------6-----------L---6--|
-------|--6---6---6---6---6---------------|---------------------------------|
-------|--6---6---6---6---6---------------|---------------------------------|
-------|--4---4---4---4---4---------------|---------------------------------|


  E.  E.  E.  E.  E.  E.  E.  E.     E.  E.  E.  E.  E.  E.  E.  E.
----------------------------------|----------------------------------|
--4-------L-----------------------|--4-------L-----------------------|
--------------6-----------L---6---|--------------6-----------L---6---|
----------------------------------|----------------------------------|
----------------------------------|----------------------------------|
----------------------------------|----------------------------------|


  E.  E.  E.  E.  E.  E.  E.  E.     E.  E.  E.  E.  E.  E.  E.  E.
----------------------------------|----------------------------------|
--4-------L-----------------------|--4-------L-----------------------|
--------------6-----------L---6---|--------------6-----------L---6---|
----------------------------------|----------------------------------|
----------------------------------|----------------------------------|
----------------------------------|----------------------------------|


  E.  E.  E.  E.  E.  E.  E.  E.     E.  E.  E.  E.  E.  E.  E.  E.
----------------------------------|----------------------------------|
--4-------L-----------------------|--4-------L-----------------------|
--------------6-----------L---6---|--------------6-----------L---6---|
----------------------------------|----------------------------------|
----------------------------------|----------------------------------|
----------------------------------|----------------------------------|


  E.  E.  E.  E.  E.  E.  E.  E.
----------------------------------|
--4-------L-----------------------|
--------------6---------------L---|
----------------------------------|
----------------------------------|
----------------------------------|


   E   E  E  E   S  S   E  E  E  E  E  E  E
--12-------------L-11---------------------L--|
--15b------------L-14b~-------------------L--|
---------------------------------------------|
---------------------------------------------|
---------------------------------------------|
---------------------------------------------|


   E   E  E  E   S  S   E  E  E  E  E  E  E
--12-------------L-11---------------------L--|
--15b------------L-14b~-------------------L--|
---------------------------------------------|
---------------------------------------------|
---------------------------------------------|
---------------------------------------------|


   E   E  E  E   S  S   E  E  E  E  E  E  E
---------------------------------------------|
--14-------------L-12---------------------L--|
--16b------------L-14b~-------------------L--|
---------------------------------------------|
---------------------------------------------|
---------------------------------------------|


   E    E  E  E  E  E  E  E  E  E  E   E       Q     Q    Q    Q    Q    Q
------------------------------------------|---------------------------------|
--11-----------------------------------L--|---------------------------------|
--13b~---------------------------------L--|--(13)------------------------L--|
------------------------------------------|---------------------------------|
------------------------------------------|---------------------------------|
------------------------------------------|---------------------------------|


-----|-------|-------|-------|-------|-------|-------|-------|-------|------|
-----|-------|-------|-------|-------|-------|-------|-------|-------|------|
-----|-------|-------|-------|-------|-------|-------|-------|-------|------|
-----|-------|-------|-------|-------|-------|-------|-------|-------|------|
-----|-------|-------|-------|-------|-------|-------|-------|-------|------|
-----|-------|-------|-------|-------|-------|-------|-------|-------|------|


          E.  E.  E.  E.  E.  E.  E.  E.     E.  E.  E.  E.  E.  E.  E.  E.
-------|----------------------------------|---------------------------------|
-------|----------------------------------|--4-------L----------------------|
-------|------------------------------6---|--------------6-----------L---6--|
-------|--6---6---6---6---6---------------|---------------------------------|
-------|--6---6---6---6---6---------------|---------------------------------|
-------|--4---4---4---4---4---------------|---------------------------------|


  E.  E.  E.  E.  E.  E.  E.  E.     E.  E.  E.  E.  E.  E.  E.  E.
----------------------------------|----------------------------------|
--4-------L-----------------------|--4-------L-----------------------|
--------------6-----------L---6---|--------------6-----------L---6---|
----------------------------------|----------------------------------|
----------------------------------|----------------------------------|
----------------------------------|----------------------------------|


  E.  E.  E.  E.  E.  E.  E.  E.     E.  E.  E.  E.  E.  E.  E.  E.
----------------------------------|----------------------------------|
--4-------L-----------------------|--4-------L-----------------------|
--------------6-----------L---6---|--------------6-----------L---6---|
----------------------------------|----------------------------------|
----------------------------------|----------------------------------|
----------------------------------|----------------------------------|


  E.  E.  E.  E.  E.  E.  E.  E.     E.  E.  E.  E.  E.  E.  E.  E.
----------------------------------|----------------------------------|
--4-------L-----------------------|--4-------L-----------------------|
--------------6-----------L---6---|--------------6---------------L---|
----------------------------------|----------------------------------|
----------------------------------|----------------------------------|
----------------------------------|----------------------------------|


  S. S. S. S. S. S. S. S. S. S. S. S. S. S. S. S.
--------------------------------------------------|
--------------------------------------------------|
--------------------------------------------------|
--------------------------------------------------|
--7--9--9--7--9--9--7--9--9--7--9--7--9--7--9--7--|
--------------------------------------------------|


   E   E  E  E   S  S   E  E  E  E  E  E  E
--12-------------L-11---------------------L--|
--15b------------L-14b~-------------------L--|
---------------------------------------------|
---------------------------------------------|
---------------------------------------------|
---------------------------------------------|


   E   E  E  E   S  S   E  E  E  E  E  E  E
--12-------------L-11---------------------L--|
--15b------------L-14b~-------------------L--|
---------------------------------------------|
---------------------------------------------|
---------------------------------------------|
---------------------------------------------|


   E   E  E  E   S  S   E  E  E  E  E  E  E
---------------------------------------------|
--14-------------L-12---------------------L--|
--16b------------L-14b~-------------------L--|
---------------------------------------------|
---------------------------------------------|
---------------------------------------------|


   E   E  E  E   S  S   E  E  E  E  E  E  E
---------------------------------------------|
--11-------------L--9---------------------L--|
--13b------------L-11b~-------------------L--|
---------------------------------------------|
---------------------------------------------|
---------------------------------------------|


   E   E  E  E   S  S   E  E  E  E  E  E  E
--12-------------L-11---------------------L--|
--15b------------L-14b~-------------------L--|
---------------------------------------------|
---------------------------------------------|
---------------------------------------------|
---------------------------------------------|


   E   E  E  E   S  S   E  E  E  E  E  E  E
--12-------------L-11---------------------L--|
--15b------------L-14b~-------------------L--|
---------------------------------------------|
---------------------------------------------|
---------------------------------------------|
---------------------------------------------|


   E   E  E  E   S  S   E  E  E  E  E  E  E
---------------------------------------------|
--14-------------L-12---------------------L--|
--16b------------L-14b~-------------------L--|
---------------------------------------------|
---------------------------------------------|
---------------------------------------------|


   E   E  E  E   S  S   E  E  E  E  E  E  E
---------------------------------------------|
--11-------------L--9---------------------L--|
--13b------------L-11b~-------------------L--|
---------------------------------------------|
---------------------------------------------|
---------------------------------------------|


  E   E  E  E   S S   E  E  E  E  E  E  E
-------------------------------------------|
--7-------------L-5---------------------L--|
--9b------------L-7b~-------------------L--|
-------------------------------------------|
-------------------------------------------|
-------------------------------------------|


  E   E  E  E   S S   E  E  E  E  E  E  E
-------------------------------------------|
--4-------------L-2---------------------L--|
--6b------------L-4b~-------------------L--|
-------------------------------------------|
-------------------------------------------|
-------------------------------------------|


  E   E  E  E  S S  E  E  E  E  E  E  E     Q.     Q.     Q.     Q.
-----------------------------------------|------------------------------|
-----------------------------------------|------------------------------|
--2b-----------L-2~----------L--1-----L--|------------------------------|
-----------------------------------------|--4---------------------------|
-----------------------------------------|------------------------------|
-----------------------------------------|------------------------------|


  E.  E.  E.  E.  E.  E.  E.  E.     E.  E.  E.  E.  E.  E.  E.  E.
----------------------------------|----------------------------------|
----------------------------------|--4-------L-----------------------|
------------------------------6---|--------------6-----------L---6---|
--------------L-------------------|----------------------------------|
----------------------------------|----------------------------------|
----------------------------------|----------------------------------|


  E.  E.  E.  E.  E.  E.  E.  E.     E.  E.  E.  E.  E.  E.  E.  E.
----------------------------------|----------------------------------|
--4-------L-----------------------|--4-------L-----------------------|
--------------6-----------L---6---|--------------6-----------L---6---|
----------------------------------|----------------------------------|
----------------------------------|----------------------------------|
----------------------------------|----------------------------------|


  E.  E.  E.  E.  E.  E.  E.  E.     E.  E.  E.  E.  E.  E.  E.  E.
----------------------------------|----------------------------------|
--4-------L-----------------------|--4-------L-----------------------|
--------------6-----------L---6---|--------------6-----------L---6---|
----------------------------------|----------------------------------|
----------------------------------|----------------------------------|
----------------------------------|----------------------------------|


  E.  E.  E.  E.  E.  E.  E.  E.     E.  E.  E.  E.  E.  E.  E.  E.
----------------------------------|----------------------------------|
--4-------L-----------------------|--4-------L-----------------------|
--------------6-----------L---6---|--------------6-----------L---6---|
----------------------------------|----------------------------------|
----------------------------------|----------------------------------|
----------------------------------|----------------------------------|


  E.  E.  E.  E.  E.  E.  E.  E.     E.  E.  E.  E.  E.  E.  E.  E.
----------------------------------|----------------------------------|
--4-------L-----------------------|--4-------L-----------------------|
--------------6-----------L---6---|--------------6-----------L---6---|
----------------------------------|----------------------------------|
----------------------------------|----------------------------------|
----------------------------------|----------------------------------|


  E.  E.  E.  E.  E.  E.  E.  E.     E.  E.  E.  E.  E.  E.  E.  E.
----------------------------------|----------------------------------|
--4-------L-----------------------|--4-------L-----------------------|
--------------6-----------L---6---|--------------6-----------L---6---|
----------------------------------|----------------------------------|
----------------------------------|----------------------------------|
----------------------------------|----------------------------------|


  E.  E.  E.  E.  E.  E.  E.  E.     E.  E.  E.  E.  E.  E.  E.  E.
----------------------------------|----------------------------------|
--4-------L-----------------------|--4-------L-----------------------|
--------------6-----------L---6---|--------------6-----------L---6---|
----------------------------------|----------------------------------|
----------------------------------|----------------------------------|
----------------------------------|----------------------------------|


  E.  E.  E.  E.  E.  E.  E.  E.     E.  E.  E.  E.  E.  E.  E.  E.
----------------------------------|----------------------------------|
--4-------L-----------------------|--4-------L-----------------------|
--------------6-----------L---6---|--------------6---------------L---|
----------------------------------|----------------------------------|
----------------------------------|----------------------------------|
----------------------------------|----------------------------------|


  S. S. S. S. S. S. S. S. S. S. S. S. S. S. S. S.
--------------------------------------------------|
--------------------------------------------------|
--------------------------------------------------|
--------------------------------------------------|
--7--9--9--7--9--9--7--9--9--7--9--7--9--7--9--7--|
--------------------------------------------------|


   E   E  E  E   S  S   E  E  E  E  E  E  E
--12-------------L-11---------------------L--|
--15b------------L-14b~-------------------L--|
---------------------------------------------|
---------------------------------------------|
---------------------------------------------|
---------------------------------------------|


   E   E  E  E   S  S   E  E  E  E  E  E  E
--12-------------L-11---------------------L--|
--15b------------L-14b~-------------------L--|
---------------------------------------------|
---------------------------------------------|
---------------------------------------------|
---------------------------------------------|


   E   E  E  E   S  S   E  E  E  E  E  E  E
---------------------------------------------|
--16-------------L-14---------------------L--|
--18b------------L-16b~-------------------L--|
---------------------------------------------|
---------------------------------------------|
---------------------------------------------|


   E   E  E  E  S S E  E  E  E  E  E  E
-----------------------------------------|
--14----------------------------------L--|
--16b---------------------------------L--|
-----------------------------------------|
-----------------------------------------|
-----------------------------------------|


   E   E  E  E   S  S   E  E  E  E  E  E  E
--12-------------L-11---------------------L--|
--15b------------L-14b~-------------------L--|
---------------------------------------------|
---------------------------------------------|
---------------------------------------------|
---------------------------------------------|


   E   E  E  E   S  S   E  E  E  E  E  E  E
--12-------------L-11---------------------L--|
--15b------------L-14b~-------------------L--|
---------------------------------------------|
---------------------------------------------|
---------------------------------------------|
---------------------------------------------|


   E   E  E  E   S  S   E  E  E  E  E  E  E
---------------------------------------------|
--16-------------L-14---------------------L--|
--18b------------L-16b~-------------------L--|
---------------------------------------------|
---------------------------------------------|
---------------------------------------------|


   E   E  E  E  S S E  E  E  E  E  E  E
-----------------------------------------|
--14----------------------------------L--|
--16b---------------------------------L--|
-----------------------------------------|
-----------------------------------------|
-----------------------------------------|


                    >
   E   E  E  E   S  S   E  E  E  E  E  E  E
--12-------------L-11---------------------L--|-----||
--15b------------L-14b~-------------------L--|-----||
---------------------------------------------|-----||
---------------------------------------------|-----||
---------------------------------------------|-----||
---------------------------------------------|-----||


THE FUTURE NEVER DIES:

piano riff for intro

verse
this riff playeb by piano, somehow I can trace the chords..
----------------------------------------------------------|
--5-----5-----4-----4-----2-----2-----5----5--------------|
--5-----5-----5-----5-----5-----5-----5----5--------------|
----------------------------------------------------------|
-----3-----3-----3-----3-----3-----3-----3----------------|
----------------------------------------------------------|

                  prechorus
----------------|-------------------------------------------|
----------------|-------------------------------------------|
----------------|-------------------------------------------|
----------3--5--|-------------------3--5--6-----------------|
--3-5--6--------|----------3--5--6--------------------------|
----------------|--4---6------------------------------------|

chorus (let all the chord ring)
-------------------|--------------|------------------------------|
-------------------|--------------|------------------------------|
-8------4------6---|-------7----9-|------------------------------|
-8------4------6---|--4----7----9-|------------------------------|
-6------2------4---|--4----5----7-|--6----4----------------------|
-------------------|--2-----------|-------------4----------------|
  x2

interlude before solo
-------------------------------------------------------------------|
-------------------------------------------------------------------|
--8-6-8----6-----8-6-8---6---4-------------------------------------|
--8-6-8----6-----8-6-8---6---4----6-4-6----4----6-4-6----1----2----|
--6-4-6----4-----6-4-6---4---2----6-4-6----4----6-4-6----3----2----|
----------------------------------4-2-4----2----4-2-4----3----0----|

solo
----------------------------------------------------------|
----------------------------------------------------------|
----------------------repeat..... i don't know how much---|
--6------2------4-----------------------------------------|
--6------2------4-----------------------------------------|
--4------0------2-----------------------------------------|


YOU'RE LOVIN' ME TO DEATH:

intro
e|--------|---------|--------|--8-8-8-8/-10-10-10-10/--|
B|---10---|---------|---10---|-------------------------|
G|-9----8-|--5----7-|-9----8-|-------------------------|
D|--------|-----7---|--------|-------------------------|
A|--------|---------|--------|-------------------------|
E|--------|---------|--------|-------------------------|
  Am    F    C    G   Am   F    C        G

 <          x2        ><     x2  ><     x2     >
e|----------|----------|----------|------------|
B|----------|----------|----------|------------|
G|----------|----------|----------|-7-7--7-7---|
D|----------|----------|-4-4--4-4-|-7-7--7-7---|
A|-7-7--7-7-|-8-8--7-7-|-4-4--4-4-|-5-5--5-5---|
E|-5-5--5-5-|-5-5--5-5-|-2-2--2-2-|------------|

 <          x2        >
e|----------|----------|----------|
B|----------|----------|----------|
G|----------|----------|----------| this direct to the tab below
D|----------|----------|-4-4--4-4-|
A|-7-7--7-7-|-8-8--7-7-|-4-4--4-4-|
E|-5-5--5-5-|-5-5--5-5-|-2-2--2-2-|

e|----------------------------------------------------------------------|
B|----------------------------------------------------------------------|
G|-5-5-5-5---------------------------------5-5-5-5-7-7-7-7-10-10--------|
D|-5-5-5-5-3-3-3-3-7-7-7-7-5-5-5-5-3-3-3-3-5-5-5-5-7-7-7-7-10-10-5-5-5--|
A|-3-3-3-3-3-3-3-3-7-7-7-7-5-5-5-5-3-3-3-3-3-3-3-3-5-5-5-5--8--8-5-5-5--|
E|---------1-1-1-1-5-5-5-5-3-3-3-3-1-1-1-1-----------------------3-3-3--|

chorus (play x4)
e|-----------|-----------|-----------|------------|
B|-----------|-----------|-----------|------------|
G|-----------|-----------|-5-5-5-5-5-|------------|
D|-7-7-7-7-7-|-3-3-3-3-3-|-5-5-5-5-5-|-5-5-5-5-5--|
A|-7-7-7-7-7-|-3-3-3-3-3-|-3-3-3-3-3-|-5-5-5-5-5--|
E|-5-5-5-5-5-|-1-1-1-1-1-|-----------|-3-3-3-3-3--|
                                       ^^^^^^^^^^^
*at the 4th time, the music pauses at this C || part,while meine keep on singing 'youre
me to death!!'

e|--------|---------|--------|
B|---10---|---------|---10---|
G|-9----8-|--5----7-|-9----8-|
D|--------|-----7---|--------|
A|--------|---------|--------|
E|--------|---------|--------|

e|------8----8-10-13-\-8-/-10---|
B|---10---10--------------------|
G|-9----------------------------|
D|------------------------------|
A|------------------------------|
E|------------------------------|

this bridge is played by two guitar and repeated two times on this part
  <              x3                >
e|----------------------------------------------------------------------|
B|------------------------------------------------------------8-8-8-8---|
G|-9-9-9-9-9-9-9-9--1010101010101010-9-9-9-9-9-9-9-9--10101010----------|
D|----------------------------------------------------------------------|
A|----------------------------------------------------------------------|
E|-7-5-7-5-7-5-7-5--7-5-7-5-7-5-7-5--7-5-7-5-7-5-7-5--7-5-7-5-7-5-7-5---|


321:


 this song is tuned 1 and a half steps down:c# f# b e g# c#

intro:after  8 snare drum beats
----------------------------------|
----------------------------------|
----------------------------------| play 4 times
----------------------------------|
----------------------------------|
-0-2-3-0-3-5-0-2-3-0-3-5-0-2-3vvv-|

verse: same as intro but palm-muted ,play 8 times

interlude
------------------------------|
------------------------------|
------------------------------|
------------------------------|
------------------------------|
-00-0-0-00-0-0-0000-----------|

chorus:
E5              G5
Save me Cause the world's gonna stop
     D5         A5
Baby 321 Are you ready to rock Come on and
E5                G5
wake me The final curtain will drop
     D5          E5
Baby 321 Are you ready to rock
G5
Are you ready to rock
D5
Are you ready to rock
A5
Are you ready to rock
Tonight
***on tonight play the intro riff and REPEAT ONCE ie play twice

play verse 8 times and move into the 2nd chorus

E5              G5
Save me Cause the world's gonna stop
     D5         A5
Baby 321 Are you ready to rock Come on and
E5                G5
wake me The final curtain will drop
     D5          E5
Baby 321 Are you ready to rock
G5
Are you ready to rock
D5
Are you ready to rock
A5
Are you ready to rock
G5
Are you ready to rock
D5
Are you ready to rock
A5
Are you ready to rock
tonight

solo rythm:

C5    B5  G5/A5

----------------------------------|
----------------------------------|
----------------------------------|
----------------------------------|
----------------------------------|
-0-2-3-0-3-5-0-2-3-0-3-5-0-2-3vvv-|

C5    B5  G5/A5

----------------------------------|
----------------------------------|
----------------------------------| play this intr riff 4 times
----------------------------------|
----------------------------------|
-0-2-3-0-3-5-0-2-3-0-3-5-0-2-3vvv-|


bridge: no guitar part

when klaus says 3 2 1 ther is a slide from the 15th fret,so:

-------------------------|
-------------------------|
-------------------------|
-------------------------|
-------------------------|
-15/---------------------|

move into chorus:

E5              G5
Save me Cause the world's gonna stop
     D5         A5
Baby 321 Are you ready to rock Come on and
E5                G5
wake me The final curtain will drop
     D5          E5
Baby 321 Are you ready to rock
G5
Are you ready to rock
D5
Are you ready to rock
A5
Are you ready to rock
G5
Are you ready to rock
D5
Are you ready to rock
A5
Are you ready to rock
tonight


----------------------------------|
----------------------------------|
----------------------------------| play once and end
----------------------------------|
----------------------------------|
-0-2-3-0-3-5-0-2-3-0-3-5-0-2-3vvv-|

LOVE WILL KEEP US ALIVE:


Tuning:Standard E A D G B e

(the hammer on (5h7) should be done fairly quickly)

Intro:
e|-------------------------------------------------------------------------|
B|--------------10-8-6-10-8------------------------------------------------|
G|-----5h7~---7-------------9-5~---------5-10-7h9p7-5-5h7~-----------------|
D|-------------------------------------------------------------------------|
A|-------------------------------------------------------------------------|
E|-------------------------------------------------------------------------|

e|-------------------------------------------------------------------------|
B|----10-8-6-10-8~---10-8~-------------------------------------------------|
G|--7----------------------------------------------------------------------|
D|-------------------------------------------------------------------------|
A|-------------------------------------------------------------------------|
E|-------------------------------------------------------------------------|


WE WILL RISE AGAIN:


Chords used:

G#5 :  466xxx
A5    : 577xxx
B5    : 799xxx
F#5  : 244xxx
C#5  :   4466xx
E5   : 0799xx
B     : 799877
A    :   577655


Intro:  G#5 A5   G#5 B5 A5 G#5        2x

For the pre- chorus part arpeggiate   C#5 and F#5 simultaneously

C#5
Holding on to you like broken glass
F#5
Every touch cuts deeper than the last
C#5
I know I should leave
F#5                     C#5
But it feels so good to bleed

Repeat chords

Poison kisses lock us in this cage
Our lives got twisted in this masquerade
I can't seem to shake this incurable need
This endless addiction I feed

Chorus:

E5
Angels on fire
They fall from the sky
B                                     A
Heaven and hell will be burning tonight
E5
Covered in ashes I cry out your name
            B5
And out of the flames
 (No chords)
We will rise again

Solo: Play Intro Again

Repeat chords  as earlier

Run in to the shadows where we hide
Bodies tender as our worlds collide
Nothing is sacred and everything's wrong
But you and I keep holding on


Angels on fire
They fall from the sky
Heaven and hell will be burning tonight
Covered in ashes I cry out your name
And out of the flames
We will rise again

Note: I haven’t written the tabs for the next verse, only the chords.

G#5   A5     F#5  G#5   E5   F#5   G#5
No  temp-ta-tion    is   my  sin

Repeat chords for next line

Not my darkest deepest whim

Play this next (pluck very fast)
D –16 16 16 18 18 18 19 19 19

Repeat chord patterns for Chorus

Angels on fire
They fall from the sky
Heaven and hell will be burning tonight
Covered in ashes I cry out your name
And out of the flames
We will rise
Angels on fire
They fall from the sky
Heaven and hell will be burning tonight
Covered in ashes I cry out your name
And out of the flames
We will rise again
We will rise again
We will rise


YOUR LAST SONG:


intro
-----1-0--------|-----3-1--0h1-0--|
----------1---1-|-----------------|
---2--------2---|---2-------------|
-0--------------|-3---------------|
----------------|-----------------|
----------------|-----------------|

intro solo
-------12-13--12-----------------|-------12-13--12------15/17-15---|
----15-----------13--------------|----15-----------13--------------|
-14------------------12h14-12-10-|-14------------------------------|
---------------------------------|---------------------------------|
---------------------------------|---------------------------------|
---------------------------------|---------------------------------|
Dm        A#     F         C       Dm        A#     F         C

-------------------------------------------------------------
VERSES AND CHORUS
-------------------------------------------------------------
chords used:
 Dm A# F  C  E  E? Em G#m A  G
-2--1--1--0--0--0--0---4--0--3---|
-3--3--1--1--0--0--0---4--2--3---|
-2--3--2--0--1--2--0---4--2--0---|
-0--3--3--2--2--2--2---6--2--0---|
----1--3--3--2--2--2---6--0--2---|
-------1--0--0--0--0---4-----3---|

i'm sorry u gotta find out your self the power chord (everybody must know it, right?)
the solo... anyway here is it..

E          E?           E               G#m
Here I am, writing my last song for you
E                E?           E              G#m
Hear the words carefully, and you'll see it's you... I'm leaving
A                            Em
Don't want to be the one to tell you
A                        G       F    Em
That I can't stay another day

D5             A#5           F5                 C5
I'll throw the pages on the floor I'm starting over like before
D5               A#5        F5                 C5
I'll change this stupid ending and stay with you forever more
D5             A#5           F5              C5
But when I'm lying next to you It's hard to bargain with the truth
D5             A#5           F5                  D5     C5
Cause when you know the love is gone The time has come to write
A#        C5
your last song

**second verse is also same like the 1st vrse**
There you are
Smiling at me from the next room
Beautiful as the first day I met you
And I'm so sorry
I couldn't be the one to love you
The way that you deserve to be

chorus

D#5                   A#5
It's hard to think of you and I as total strangers
D#5                          A#5                       F5
I've lived this last goodbye a million times or more in my mind
D#5      D5
My mind, my mind

**solo**
-

**this post chorus is used same chord as chorus

Oh and I'm gonna miss you
But I can't go back
Even just to kiss you
Cause I can't exist
Just living a lie
Gotta lot of love to give
You know before I die
And as I watch you
Sing along
It's killing me to know
That it's your last song

LOVE IS WAR:

------------------------------------|
------------------------------------|
------------------------------------|


THE CROSS:

------------------------------------|
------------------------------------|
------------------------------------|

HUMANITY:

TUNE YOUR GUITAR HALF-STEP DOWN.


INTRO (SOLO)

|-------------------------|----------------------------|---------------|
|-----------10-8-6h8p6----|-6/8--10--11--10-8-6h8p6----|-6/8--6--8-6-5-|
|-7--9--10--------------7-|--------------------------7-|---------------|
|-------------------------|----------------------------|---------------|
|-------------------------|----------------------------|---------------|
|-------------------------|----------------------------|---------------|

VERSE 1

|----5--------5--------5-|----5--------5--------5-|
|-------6--------6-------|-------6--------6-------|
|-7--------7--------7----|-7--------7--------7----|
|------------------------|------------------------|
|------------------------|------------------------|
|------------------------|------------------------|
Humanity                    Auf widersehen

|----6--------6--------6-|----6--------6--------6-|
|-------6--------6-------|-------6--------6-------|
|-7--------7--------7----|-7--------7--------7----|
|------------------------|------------------------|
|------------------------|------------------------|
|------------------------|------------------------|
it’s time to say goodbye    The party is over

|----3--------3--------3-|----5--------5--------5-|
|-------3--------3-------|-------2--------2-------|
|-0--------0--------0----|-2--------2--------2----|
|------------------------|------------------------|
|------------------------|------------------------|
|------------------------|------------------------|
as the laughter dies        An angel cries

VERSE 2

|----5--------5--------5-|----5--------5--------5-|
|-------6--------6-------|-------6--------6-------|
|-7--------7--------7----|-7--------7--------7----|
|------------------------|------------------------|
|------------------------|------------------------|
|------------------------|------------------------|
Humanity                  It´s au revoir to your

|----6--------6--------6-|----6--------6--------6-|
|-------6--------6-------|-------6--------6-------|
|-7--------7--------7----|-7--------7--------7----|
|------------------------|------------------------|
|------------------------|------------------------|
|------------------------|------------------------|
insanity                   You sold your soul to feed your

|----3--------3--------3-|----5--------5--------5-|
|-------3--------3-------|-------2--------2-------|
|-0--------0--------0----|-2--------2--------2----|
|------------------------|------------------------|
|------------------------|------------------------|
|------------------------|------------------------|
vanity,                    your fantasies, and

|----5--------5--------5-|----5--------5--------5-|
|-------6--------6-------|-------6--------6-------|
|-7--------7--------7----|-7--------7--------7----|
|------------------------|------------------------|
|------------------------|------------------------|
|------------------------|------------------------|
lies
 
CHORUS

|----------------|----------------|----------------|----------------|
|----------------|----------------|----------------|----------------|
|----------------|----------------|----------------|----------------|
|-7---7---7-7-7--|-7---7---7-7-7--|-5---5---5-5-5--|-5---5---5-5-5--|
|-5---5---5-5-5--|-5---5---5-5-5--|-5---5---5-5-5--|-5---5---5-5-5--|
|-5---5---5-5-5--|-5---5---5-5-5--|-3---3---3-3-3--|-3---3---3-3-3--|
You’re a drop…   Just a number…   And you don’t…   You don’t believe…

|----------------|----------------|----------------|----------------|
|----------------|----------------|----------------|----------------|
|----------------|----------------|----------------|----------------|
|-7---7---7-7-7--|-7---7---7-7-7--|-5---5---5-5-5--|-5---5---5-5-5--|
|-5---5---5-5-5--|-5---5---5-5-5--|-5---5---5-5-5--|-5---5---5-5-5--|
|-5---5---5-5-5--|-5---5---5-5-5--|-3---3---3-3-3--|-3---3---3-3-3--|
At the end of…   You’re a needle… You signed and…  And now you gotta…

|----------------|----------------|----------------|---------|
|----------------|----------------|----------------|---------|
|-3-3-3-3--3-3-3-|-5-5-5-5--5-5-5-|-3-3-3-3--3-3-3-|-5-------|
|-3-3-3-3--3-3-3-|-5-5-5-5--5-5-5-|-3-3-3-3--3-3-3-|-5-------|
|-1-1-1-1--1-1-1-|-3-3-3-3--3-3-3-|-1-1-1-1--1-1-1-|-3-------|
|----------------|----------------|----------------|---------|
  Humanity                          Humanity

|----------------------|----------------------|----------------------|
|----------------------|----------------------|----------------------|
|----------------------|----------------------|----------------------|
|-7-7-7-7--7-7-7-7--6--|-7-7-7-7--7-7-7-7--6--|-7-7-7-7--7-7-7-7--6--|
|-5-5-5-5--5-5-5-5--5--|-5-5-5-5--5-5-5-5--5--|-5-5-5-5--5-5-5-5--5--|
|-5-5-5-5--5-5-5-5--4--|-5-5-5-5--5-5-5-5--4--|-5-5-5-5--5-5-5-5--4--|
Goodbye                                       Goodbye

|------------------|
|------------------|
|------------------|
|-7-7-7-7--7-7-7-7-|
|-5-5-5-5--5-5-5-5-|
|-5-5-5-5--5-5-5-5-|
 
VERSE 3

|----5--------5--------5-|----5--------5--------5-|
|-------6--------6-------|-------6--------6-------|
|-7--------7--------7----|-7--------7--------7----|
|------------------------|------------------------|
|------------------------|------------------------|
|------------------------|------------------------|
Be on your way              Adios amigo there‘s a

|----6--------6--------6-|----6--------6--------6-|
|-------6--------6-------|-------6--------6-------|
|-7--------7--------7----|-7--------7--------7----|
|------------------------|------------------------|
|------------------------|------------------------|
|------------------------|------------------------|
price to pay                For all the egotistic

|----3--------3--------3-|----5--------5--------5-|
|-------3--------3-------|-------2--------2-------|
|-0--------0--------0----|-2--------2--------2----|
|------------------------|------------------------|
|------------------------|------------------------|
|------------------------|------------------------|
games you played         The world you made

|----5--------5--------5-|----5--------5--------5-|
|-------6--------6-------|-------6--------6-------|
|-7--------7--------7----|-7--------7--------7----|
|------------------------|------------------------|
|------------------------|------------------------|
|------------------------|------------------------|
is gone
 
CHORUS

|----------------|----------------|----------------|----------------|
|----------------|----------------|----------------|----------------|
|----------------|----------------|----------------|----------------|
|-7---7---7-7-7--|-7---7---7-7-7--|-5---5---5-5-5--|-5---5---5-5-5--|
|-5---5---5-5-5--|-5---5---5-5-5--|-5---5---5-5-5--|-5---5---5-5-5--|
|-5---5---5-5-5--|-5---5---5-5-5--|-3---3---3-3-3--|-3---3---3-3-3--|
You’re a drop…   Just a number…   And you don’t…   You don’t believe…

|----------------|----------------|----------------|----------------|
|----------------|----------------|----------------|----------------|
|----------------|----------------|----------------|----------------|
|-7---7---7-7-7--|-7---7---7-7-7--|-5---5---5-5-5--|-5---5---5-5-5--|
|-5---5---5-5-5--|-5---5---5-5-5--|-5---5---5-5-5--|-5---5---5-5-5--|
|-5---5---5-5-5--|-5---5---5-5-5--|-3---3---3-3-3--|-3---3---3-3-3--|
At the end of…   You’re a needle… You signed and…  And now you gotta…

|----------------|----------------|----------------|---------|
|----------------|----------------|----------------|---------|
|-3-3-3-3--3-3-3-|-5-5-5-5--5-5-5-|-3-3-3-3--3-3-3-|-5-------|
|-3-3-3-3--3-3-3-|-5-5-5-5--5-5-5-|-3-3-3-3--3-3-3-|-5-------|
|-1-1-1-1--1-1-1-|-3-3-3-3--3-3-3-|-1-1-1-1--1-1-1-|-3-------|
|----------------|----------------|----------------|---------|
Humanity                          Humanity

|----------------------|----------------------|----------------------|
|----------------------|----------------------|----------------------|
|----------------------|----------------------|----------------------|
|-7-7-7-7--7-7-7-7--6--|-7-7-7-7--7-7-7-7--6--|-7-7-7-7--7-7-7-7--6--|
|-5-5-5-5--5-5-5-5--5--|-5-5-5-5--5-5-5-5--5--|-5-5-5-5--5-5-5-5--5--|
|-5-5-5-5--5-5-5-5--4--|-5-5-5-5--5-5-5-5--4--|-5-5-5-5--5-5-5-5--4--|
Goodbye                                       Goodbye

|----------------------|
|----------------------|
|----------------------|
|-7-7-7-7--7-7-7-7--6--|
|-5-5-5-5--5-5-5-5--5--|
|-5-5-5-5--5-5-5-5--4--|
 
INTERLUDE

|---------------------------------|---------------------------------|
|---------------------------------|---------------------------------|
|---------------------------------|---------------------------------|
|-7-7-7-7-7-7-7-7-7-7-7-7-7-7-7-7-|-7-7-7-7-7-7-7-7-7-7-7-7-7-7-7-7-|
|-5-5-5-5-5-5-5-5-5-5-5-5-5-5-5-5-|-5-5-5-5-5-5-5-5-5-5-5-5-5-5-5-5-|
|---------------------------------|---------------------------------|
  Run and hide                          there’s fire in the sky

|---------------------------------|---------------------------------|
|---------------------------------|---------------------------------|
|---------------------------------|---------------------------------|
|---------------------------------|---------------------------------|
|-5-5-5-5-5-5-5-5-5-5-5-5-5-5-5-5-|-5-5-5-5-5-5-5-5-5-5-5-5-5-5-5-5-|
|-3-3-3-3-3-3-3-3-3-3-3-3-3-3-3-3-|-3-3-3-3-3-3-3-3-3-3-3-3-3-3-3-3-|
  Stay inside                           the water’s gonna

|---------------------------------|---------------------------------|
|---------------------------------|---------------------------------|
|---------------------------------|---------------------------------|
|-5-5-5-5-5-5-5-5-5-5-5-5-5-5-5-5-|-2-2-2-2-2-2-2-2-2-2-2-2-2-2-2-2-|
|-3-3-3-3-3-3-3-3-3-3-3-3-3-3-3-3-|-0-0-0-0-0-0-0-0-0-0-0-0-0-0-0-0-|
|---------------------------------|---------------------------------|
  rise and                               pull you under

|------------------------|------------------------|
|------------------------|------------------------|
|------------------------|------------------------|
|-7--7--7--7--7--7--7--7-|-7--7--7--7--7--7--7--7-|
|-5--5--5--5--5--5--5--5-|-5--5--5--5--5--5--5--5-|
|------------------------|------------------------|
  In your eyes             I’m starring at the

|------------------------|------------------------|
|------------------------|------------------------|
|------------------------|------------------------|
|------------------------|------------------------|
|-5--5--5--5--5--5--5--5-|-5--5--5--5--5--5--5--5-|
|-3--3--3--3--3--3--3--3-|-3--3--3--3--3--3--3--3-|
  end of time              Nothing can change us

|------------------------|------------------------|-------|
|------------------------|------------------------|-------|
|------------------------|------------------------|-------|
|-5--5--5--5--5--5--5--5-|-2--2--2--2--2--2--2--2-|-3-----|
|-3--3--3--3--3--3--3--3-|-0--0--0--0--0--0--0--0-|-1-----|
|------------------------|------------------------|-------|
  no one can save us       from ourselves
 
SOLO

|------------|----------------------------------|-------------------|
|------------|----------------------------------|-------------------|
|----9--7----|-10-9h10p9/7--9--10--9—7--9--7----|-10-9h10p9/7-9--10-|
|-7--------7-|--------------------------------8-|-------------------|
|------------|----------------------------------|-------------------|
|------------|----------------------------------|-------------------|

|---------------------------------|-------------------------------------|
|-8/10--8------8/10--8------------|----------------15/17-18-17-18-17-15-|
|----------7------------6----7--9-|-14-15-14-12-14----------------------|
|---------------------------------|-------------------------------------|
|---------------------------------|-------------------------------------|
|---------------------------------|-------------------------------------|

|-17-13-15-13-------17-18-17-18-17-----|
|-------------15-----------------------|
|----------------14--------------------|
|--------------------------------------|
|--------------------------------------|
|--------------------------------------|

CHORUS

|----------------|----------------|----------------|----------------|
|----------------|----------------|----------------|----------------|
|----------------|----------------|----------------|----------------|
|-7---7---7-7-7--|-7---7---7-7-7--|-5---5---5-5-5--|-5---5---5-5-5--|
|-5---5---5-5-5--|-5---5---5-5-5--|-5---5---5-5-5--|-5---5---5-5-5--|
|-5---5---5-5-5--|-5---5---5-5-5--|-3---3---3-3-3--|-3---3---3-3-3--|
You’re a drop…   Just a number…   And you don’t…   You don’t believe…

|----------------|----------------|----------------|----------------|
|----------------|----------------|----------------|----------------|
|----------------|----------------|----------------|----------------|
|-7---7---7-7-7--|-7---7---7-7-7--|-5---5---5-5-5--|-5---5---5-5-5--|
|-5---5---5-5-5--|-5---5---5-5-5--|-5---5---5-5-5--|-5---5---5-5-5--|
|-5---5---5-5-5--|-5---5---5-5-5--|-3---3---3-3-3--|-3---3---3-3-3--|
At the end of…   You’re a needle… You signed and…  And now you gotta…

|----------------|----------------|----------------|----------------|
|----------------|----------------|----------------|----------------|
|-3-3-3-3--3-3-3-|-5-5-5-5--5-5-5-|-3-3-3-3--3-3-3-|-5-5-5-5--5-5-5-|
|-3-3-3-3--3-3-3-|-5-5-5-5--5-5-5-|-3-3-3-3--3-3-3-|-5-5-5-5--5-5-5-|
|-1-1-1-1--1-1-1-|-3-3-3-3--3-3-3-|-1-1-1-1--1-1-1-|-3-3-3-3--3-3-3-|
|----------------|----------------|----------------|----------------|
Humanity                          Humanity

|----------------|---------|
|----------------|---------|
|-3-3-3-3--3-3-3-|-5-------|
|-3-3-3-3--3-3-3-|-5-------|
|-1-1-1-1--1-1-1-|-3-------|
|----------------|---------|
Humanity

|----------------------|----------------------|----------------------|
|----------------------|----------------------|----------------------|
|----------------------|----------------------|----------------------|
|-7-7-7-7--7-7-7-7--6--|-7-7-7-7--7-7-7-7--6--|-7-7-7-7--7-7-7-7--6--|
|-5-5-5-5--5-5-5-5--5--|-5-5-5-5--5-5-5-5--5--|-5-5-5-5--5-5-5-5--5--|
|-5-5-5-5--5-5-5-5--4--|-5-5-5-5--5-5-5-5--4--|-5-5-5-5--5-5-5-5--4--|
Goodbye                                       Goodbye

|----------------------|----------------------|----------------------|
|----------------------|----------------------|----------------------|
|----------------------|----------------------|----------------------|
|-7-7-7-7--7-7-7-7--6--|-7-7-7-7--7-7-7-7--6--|-7-7-7-7--7-7-7-7--6--|
|-5-5-5-5--5-5-5-5--5--|-5-5-5-5--5-5-5-5--5--|-5-5-5-5--5-5-5-5--5--|
|-5-5-5-5--5-5-5-5--4--|-5-5-5-5--5-5-5-5--4--|-5-5-5-5--5-5-5-5--4--|
                       Goodbye

|----------------------|------------------|
|----------------------|------------------|
|----------------------|------------------|
|-7-7-7-7--7-7-7-7--6--|-7-7-7-7--7-7-7-7-|
|-5-5-5-5--5-5-5-5--5--|-5-5-5-5--5-5-5-5-|
|-5-5-5-5--5-5-5-5--4--|-5-5-5-5--5-5-5-5-|
Goodbye

Duration Legend
---------------
W - whole; H - half; Q - quarter; E - 8th; S - 16th; T - 32nd; X - 64th; a - acciaccatura
+ - note tied to previous; . - note dotted; .. - note double dotted
Tablature Legend
----------------
 h   - hammer-on
 p   - pull-off
 b   - bend
 pb  - pre-bend
 r   - bend release (if no number after the r, then release immediately)
 /\  - slide into or out of (from/to "nowhere")
 s   - legato slide
 S   - shift slide
 - natural harmonic
[n]  - artificial harmonic
n(n) - tapped harmonic
 ~   - vibrato
 tr  - trill
 T   - tap
 TP  - trem. picking
 PM  - palm muting
\n/  - tremolo bar dip; n = amount to dip
 \n  - tremolo bar down
 n/  - tremolo bar up
/n\  - tremolo bar inverted dip
 =   - hold bend; also acts as connecting device for hammers/pulls
 <> - volume swell (louder/softer)
 x   - on rhythm slash represents muted slash
 o   - on rhythm slash represents single note slash

Misc Legend
-----------
 |  - bar
||  - double bar
||o - repeat start
o|| - repeat end
*|  - double bar (ending)
 :  - bar (freetime)
 $  - Segno
 &  - Coda


THE END(finally)
Like always i would like to thank
everybody who have written tabs on
those songs above.Thank you!!!!!!!

                      Tabbed By:ELIAS STASI
comments
print report bad tab
3 comments total.
0 reply
choreman wrote on September 19 2009, 07:48 pm

bastard you stole my tab for Humanity
people!!! check and rate my tab, not this one, mine is the original
remember: choreman

0 reply
ilikepie_24 wrote on September 23 2009, 09:12 am

Yeah, just saw the "Humanity (ver. 2" tab. If you did steal it from him, you could've atleast given him credit for it...

0 reply
Steel Nathan wrote on December 16 2009, 07:02 pm

All this guy did was take tabs from other people...

I'm sorry man, but you could at least credit everyone for their work.

I want to post or [tab]
guest
You may want to rate the tab now too:
select rating
Please do not post tabs as comments. Select "correction" instead!