Oops, an error
Loading. Please wait.

Humanity Tab

version 1
version 1

Whole song

Interactive

50,314 views 21 this week
7 commentsread comments
1 2 3 4 5
x 10
add to favorites
launch autoscroll
font size
0
reset
how to read this tab
guitar tuner
Autoscroll
slow
fast
+/-
esc
set tempo
stop
Help us to improve Ultimate-Guitar.com Take our survey!
×
Bill Theocharidis

first solo (please listen to the song for timing!)
--------------------------------------------------------------------|
----------9-7-5754-------------9-7-5754-----------------------------|
--6-8-9--------------11-13-14------------11--9--11-9-8--------------|
--------------------------------------------------------------------|
--------------------------------------------------------------------|
--------------------------------------------------------------------|


Chords:
Cm#
-----4-----4----4--|
-------5-----5-----|
---------6-----6---|
-------------------|
--4----------------|
-------------------|

A
-----5-----5----5--|
-------5-----5-----|
---------6-----6---|
-------------------|
-------------------|
--5----------------|

B
-----7-----7----7--|
-------7-----7-----|
---------8-----8---|
-------------------|
-------------------|
--7----------------|

F#
-----4-----4----4--|
-------4-----4-----|
---------5-----5---|
-------------------|
-------------------|
--4----------------|


Cm#(riff)
-----------------------|
-----------------------|
--6-6-6-6--x--6-6-6-6--|
--6-6-6-6--x--6-6-6-6--|
--4-4-4-4--x--4-4-4-4--|
-----------------------|
d u d u d u d u

u-upstrokes
d-downstrokes


Cm#
Humanity
Cm# A
Auf wiedersehen it's time to say good bye
A B
The party's over as the laughter dies
F#
An angel cries
Cm#
Humanity...

Cm# Cm#
Your a drop in the rain just a number not a name
B B
And you won't see it you don't believe it

...

A B
Humaaaanity
A B
Humaaaanity
Cm#(riff)
Goodbye...
Suggest correction
comments
print report bad tab
7 comments total. Showing first comments.
+1 reply
Prosikito 10 May 30, 2007 02:05 PM

Can you put this tab into Guitar Pro plz???

0 reply
Pegaz1 10 Jul 03, 2007 03:37 AM

non accurate intro, some chords are wrong

+2 reply
TrueMusou 83 Aug 25, 2007 03:33 PM

|--------9-7h9p7--------9-10--9-7h9h7-------------------|
|-6-8-9----------9-6s11----------------9-6s11-9-11p9-8--|
|-------------------------------------------------------|
|-------------------------------------------------------|
|-------------------------------------------------------|
|-------------------------------------------------------|

This is how the Intro Sounds to me....

guest
You may want to rate the tab now too:
select rating
Wanna post a correction for this tab? Suggest correction