Oops, an error
Loading. Please wait.

In Search Of The Peace Of Mind tab

1,816 views 1 this week
no commentswrite comment
1 2 3 4 5
2 more votes to show rating
add to favorites
×
Save as Personal and add changes to this tab that will be seen only by you. Learn more ›
×
You can save this tab as Personal to edit and correct it or add notes. All changes will be seen only by you. Learn more »
launch autoscroll
font size
0
reset
how to read this tab
guitar tuner
edit
Autoscroll
slow
fast
+/-
esc
set tempo
stop
Author
Unregistered
In Search of the Peace of Mind          Schenker/Schenker/Meiner/Dziony/Heimberg
Lonesome Crow
Scorpions


Que pasa con la gente que dice que este disco es pura basura o que no vale la pena
comprarlo, se ve que que son de "wind of change" para aca, en lo particular esta es
la canción que mas me gusta de este album en verdad ESCUCHENLO y no se dejen llevar
por las demas opiniones es por demas decir que es un disco con gran riqueza en la
guitarra (Michael Schenker) y con gran letra.



Intro
|-----------------------------------------------------------------|
|---------------------------------------------------------12~-----|
|--12-14-16-12~--12-14-16-----12-14-16-11-12-14^-11-12-14---------|
|-------------------------15~-------------------------------------|
|-----------------------------------------------------------------|
|-----------------------------------------------------------------|
lo siento pero no puedo sacar la otra guitarra

Guitarra acustica
|-----0--0---0--0---0--0---0--0--------------------------|
|------3--3---3--3---3--3---3--3-------------------------|
|-------2--2---2--2---2--2---2--2------------------------|
|---0----------------------------------------------------|
|-----------3-------2------0-----------------------------|
|--------------------------------------------------------|



|----0--0--0---0--0--0---0--0--0---0--0--0--------------------|
|-----3--3--3---3--3--3---3--3--3---3--3--3-------------------|
|------2--2--2---2--2--2---2--2--2---2--2--2------------------|
|---0---------------------------------------------------------|
|-------------3---------2---------0---------------------------|
|-------------------------------------------------------------|



Solo
|----------------------------------------------------------------------------|
|----------7h8h10---10p8p7--------------10------10---------------------------|
|---7---7h9---------------9p7------------9------9--7-----7h9--7-9-7-9-----7--|
|--------------------------------7h9---7----7h9--------------9---------------|
|------------------------------------9---------9-----------------------------|
|----------------------------------------------------------------------------|



|--------10-10-8-7---7--------7--------------------------------------------------------------|
|-----8~------------8--8---7h8-7h8---7-----------------------------------7h8-8h10p8p7h8p7~~--|
|-7h9------------------------------------7--7---------7--------7-9-----7---------------------|
|---------------------------------------7-----10p9-7-9-7----7h9-----7h9----------------------|
|--------------------------------------------------------------------------------------------|
|--------------------------------------------------------------------------------------------|



|-----------------------------------------------------------|
|-----------------------------------------------------------|
|---7-------------------------------------------------------|
|-----7h9---------------------------------------------------|
|-----------------------------------------------------------|
|-----------------------------------------------------------|




Las dos guitarras                   Desvanecer poco a poco
|---2--2--5--3----2--2--5--3----2--2--5--3--------------------|
|---3--3--7--5----3--3--7--5----3--3--7--5--------------------|
|---2--2--7--5----2--2--7--5----2--2--7--5--------------------|
|-------------------------------------------------------------|
|-------------------------------------------------------------|
|-------------------------------------------------------------|



electrica con tono limpio
|--------------------------------------------------|
|--------------------------------------------------|
|--------------------------------------------------|
|--------------------------------------------------|
|----2--3--2---2--3--2-----------------------------|
|---0--0------0--0---------------------------------|



Cualquier pregunta, aportación o comentario

metal-maniaco@the-scorpions.com         mirsha_joker@hotmail.com

            
            
Suggest correction
Creating personal tab
Creating personal tab
You can edit any tab online and save it as your Personal.

You can edit, replace or remove any tab part or add personal notes – all changes will be seen only by you.

Personal tabs can be accessed anytime from any device, even offline.
Learn more »
Give kudos to tab author, rate the tab!
1 2 3 4 5
comments
print report bad tab
guest
Wanna post a correction for this tab? Suggest correction