Oops, an error
Loading. Please wait.

In Trance Bass Tab

version 1
version 1

Whole song

Interactive

2,355 views 1 this week
no commentswrite comment
1 2 3 4 5
please rate
add to favorites
launch autoscroll
font size
0
reset
guitar tuner
Autoscroll
slow
fast
+/-
esc
set tempo
stop
Help us to improve Ultimate-Guitar.com Take our survey!
×
Contributor
Haris_rock 1,964
Band: Scorpions
Song: In Trance
Album: In Trance
Year: 1976
Music & Lyrics: Rudolf Schenker & Klaus Meine

Bass Tab

Intro

----------------------|----------------------|----------------------|
----------------------|----------------------|----------------------|
------------------7/--|--4---------------7/--|--4--------------7/---|
----------------------|----------------------|----------------------|

----------------------|----------------------|-------------------|
----------------------|----------------------|-------------------|
--4---------------7/--|--4---------------7/--|--4----------------|
----------------------|----------------------|-------------------|

Verse 1
            
-------------------|-------------------|-------------------|-------------------|
-------------------|-------------------|-------------------|-------------------|
--2----------------|--0----------------|-------------------|--4----------------|
-------------------|-------------------|----4--------------|-------------------|
   
-------------------|-------------------|------------------------|
-------------------|-------------------|------------11-11-------|
--2----------------|--0----------------|------------------------|
-------------------|-------------------|--4----5----------------|

Chorus (i play mute note, but you can also play C# note it's same thing)
   
--------------------------|----------------------------|
--------------------------|----------------------------|
--4---x-4-----2-4--2-4----|--7-----7-7-----2----2-1-2--|
--------------------------|----------------------------| 3X

--------------------------|----------------------|-------------|
--------------------------|----------------------|-------------|
--4---4-4-----2-4--2-4----|--7-----7-7----2------|--------7/---|
--------------------------|----------------------|-------------|

Verse 2: Same as Verse 1
           
Chorus *

------------------------------|-----------------------------|
------------------------------|-----------------------------|
--4----2-4----------2--4----4-|--7-----7-7-----2----2-1-2-1-|
----------------2-4-----4-2---|-----------------------------|
             
-------------------------------|-----------------------|
-------------------------------|-----------------------|
--4----2-4----------2--4-----4-|--7-----7--------------|
----------------2-4------4-2---|---------------7-------|

Guitar Solo 
   
----------------------------|--------------------------|
----------------------------|--------------------------|
--4---2-4-----2-4--2-4------|--------------------------|
------------------------1-1-|--2---1-2-----x-4--x-4----|

----------------------------|--------------------------|
----------------------------|--------------------------|
--4---2-4-----2-4--2-4------|--------------------------|
------------------------1-1-|--2---1-2-----x-4--x-4----|

------------------------|-----------------------------|
------------------------|-----------------------------|
---------------2---2----|--4---2-4------2-2-2-2-2-2-2-|
--5-----5---------------|-----------------------------|
        
-------------------------|----------------------|
-------------------------|----------------------|
---------------2----2----|--4---2---0-----------|
--5-----5----------------|----------------------|

Chorus (play chorus with *)

Then Klaus vocal interlude

Outro

|------------------------|--------------------|
|*-----------------------|--------------------|
|*--4--------------2-----|--------------------|
|------------2--4-----0--|--2--------4--------|
          
-----------------------|---------------------|
-----------------------|--------------------*|
--4--------------2-----|--------------------*|
-----------2--4-----0--|--2--------4---------|

Song Lyrics:

I wake up in the morning
and the sun begins to shine
the day did sneak up on the night
I see your face and I see myself
and I get a little taste of life
I try to stand it for a while

But I´m in a trance
Hey baby tell me can´t you hear me calling
I´m in a trance
I take too much in the Saturday night
Hey... Hey

Hey baby tell me can´t you hear me calling
I´m in a trance
I wanna try to stop this life

I feel so sad I´m feeling down
On the radio the music plays
I´m in love with her and I feel fine
I close my eyes
I think today is getting better with a sip of wine
and I can stand it for a while

When I´m in a trance
Hey baby tell me can´t you hear me calling
I´m in a trance
I take too much in the Saturday night
Hey... Hey

Hey baby tell me can´t you hear me calling
I´m in a trance
I wanna try to stop this life

Tablature Legend
----------------
x - dead note
/ - slide


comments
We did not receive enough feedback on this tab! Please rate:
print report bad tab
1 2 3 4 5
I want to post or [tab]
guest
You may want to rate the tab now too:
select rating
Please do not post tabs as comments. Select "correction" instead!