Oops, an error
Loading. Please wait.

In Your Park Tab

version 1
version 1

Whole song

Interactive

3,213 views 6 this week
no commentswrite comment
1 2 3 4 5
please rate
add to favorites
launch autoscroll
font size
0
reset
how to read this tab
guitar tuner
Tab Pro tools
  • play this tab
  • loop segment
  • change instrument
  • show fretboard
  • metronome
×
Best way to learn
"In Your Park"
Autoscroll
slow
fast
+/-
esc
set tempo
stop
Contributor
Difficulty
intermediate
Band:  Scorpions
Album: Virgin Killers
Song:  In Your Park

Copyright (c)  (RCA) (1977)
Version 1.0 - (28/07/06)



.  - palm mute           /  - slide up to
\  - slide down to       ~  - vibrato
h  - hammer on           b  - Bend
p  - pull off            Suffixes for bend
t  - tap                 f  - full bend    h - half bend
ph - pinched harmonic    q  - quarter bend t - tap bend
*  - see comment         ^  - Hold bend    r release bend
x  - Stuccatto           ~  - vibrato bend
,  - slight palm mute    () - ghost note, sustained note
"  - tremolo note        <> - harmonic
pb - pre bend

Tuning Eb Ab Db Gb Bb Eb



 Intro Backing

|------------------------------------------------|
|------------------------------------------------|
|-9----9----7----7------2----2-------9----9------|
|-9----9----7----7------2----2-------9----9------|
|-7----7--x-5----5--x-x-0----0---x-x-7----7--x-x-|
|------------------------------------0-----------|

|-------------------------------------------------|
|--------------3----3-------10-------(10)---------|
|-5----5-------0----0-------9--------(9)----------|
|-5----5-------0----0-------7--------(7)----------|
|-3----3---x-x----------x-x-0--------(0)----------|
|--------------3----3-----------------------------|

 Intro solo

    ~~~~~~~~~~                     ~~~~~~~~             ~~~
|-------------------------------------------------------------|
|-15fb--------15fb--15fb--15fb--r----------15-13-12----12--\--|
|---------------------------------------------------14--------|
|-------------------------------------------------------------|
|-------------------------------------------------------------|
|-------------------------------------------------------------|

                             h         ~~~~~~                  ~~~~~~~
|-15fb--15p12-15-------------------------------------------------------|
|-------------------------15-17p15------------------15-----------------|
|----------------12-11-----------------------/16-16----16b--r-14-------|
|----------------------14----------16-17-------------------------------|
|----------------------------------------------------------------------|
|----------------------------------------------------------------------|

 ~~~~~~~~~~~~~~~~~~~~~~~~~
|---------------------------|
|---------to feedback-------|
|---(14)------------------\-|
|---------------------------|
|---------------------------|
|---------------------------|

 Verse

 Acoustic guitar very faint in mix

  E         D        G        E     C   C   G   G   A
|-0--------------2--------------0-----------------------------------|
|-0---------3----3---3----------0-----------3---3-------1-----------|
|-9---------2----2---0----------0---0---0---0---0---2---2--strum----|
|-9--strum--0--------0--------------2---2---0---0---2---2-----------|
|-7---------------------------------3---3-----------0---------------|
|--------------------3----2---0-------------3---3-------------------| Rpt

 Lead fills

|------------------------<12>---------<12>---------------|
|-<5>--------<7>-----------------------<12>--------------|
|------<5>---------<7>-------------------<12>------------|
|--------------------------------------------------------|
|--------------------------------------------------------|
|--------------------------------------------------------|

|-<5>--------------------------------------------<12>----------<7>--|
|--------------------<5>-----------<7>-----------------------<7>----|
|--------------------------<5>------------<7>--------------<7>------|
|-------------------------------------------------------------------|
|-------------------------------------------------------------------|
|-------------------------------------------------------------------|

 Chorus

|--------------------------------------------|
|------------------------3----3----3---------|
|-5----5---\4----4-------0----0----2---------|
|-5----5---\4----4-------0----0----0---------|
|-3----3---\2----2----------------------0-2--|
|--------------------0-2-3----3--------------|


|-------------------------------------------------------|
|------------------------3----3-------------------------|
|-5----5---\4----4-------0----0----4--------(4)---------|
|-5----5---\4----4-------0----0----4--------(4)---------|
|-3----3---\2----2-----------------2--------(2)---------|
|--------------------0-2-3----3-------------------------|

 Rpt Verse

   ~~~~~~~~~~~~~~~~    ~~~~~~~~~~~~~
|-12-----fade in--------------------|
|-----------------------------------|
|---------------------11--fade in---|
|-----------------------------------|
|-----------------------------------|
|-----------------------------------|

                  ~~~~~~~~~~~~~
|-------------------------------|
|-pb9r------\-------------------|
|----------------9--------------|
|-------------------------------|
|-------------------------------|
|-------------------------------|


|--------------------------<12>-----|
|-<12>------------------------------|
|---------------<12>----------------|
|-----------------------------------|
|-----------------------------------|
|-----------------------------------|

|-<7>---------------<7>-------0--|
|-----------------<7>--------5---|
|---------------<7>---------4----|
|--------------------------------|
|--------------------------------|
|--------------------------------|

 Rpt Chorus

 Backing for guitar solo is intro riff 2 X

 Guitar solo

      ~~~~~~~~~~~~~          ~~~~~~~~~                          ~~
|-----------------------------------------12-12-15p12--------------------|
|---15fb-----------15fb-----15fb-------15b------------15-12-11-10--------|
|--x--------------------------------------------------------------12-11--|
|-x----------------------------------------------------------------------|
|------------------------------------------------------------------------|
|------------------------------------------------------------------------|

   ~~~~~~~
|----------15fb--15-14-15--------15p12-----------12----------------|
|-------------------------17-15b-------15-12--------15-12----------|
|-11b----------------------------------------14b----------14brp12--|
|------------------------------------------------------------------|
|------------------------------------------------------------------|
|------------------------------------------------------------------|

                                ~~~~~~~~~~~              ph ~~~~~
|-------------12--------------------------------------------------|
|-15p12----12----12-15--------------------------------------------|
|-------14-------------14brp12-14b---------14fb----r-p12-14b------|
|-----------------------------------------------------------------|
|-----------------------------------------------------------------|
|-----------------------------------------------------------------|

                  ph~~~~~~~~~~           ~~~~~~~~~~~
|-12--15--17fb--r-------------20fb--r---------------17fb-r17-15-17-15-|
|-----------------17-------------------17-----------------------------|
|---------------------------------------------------------------------|
|---------------------------------------------------------------------|
|---------------------------------------------------------------------|
|---------------------------------------------------------------------|

  h              ~~~~~~~~~~~~~                              h
|-17-p15\14-15-22fb------------15fb--rp12-15p-----------10-12p10-|
|----------------------------------------------------------------|
|---------------------------------------------12-11--------------|
|---------------------------------------------------14-----------|
|----------------------------------------------------------------|
|----------------------------------------------------------------|

      ~~~~~~~                       ~~~~~~~         ~~~~~~~~~~~~~~~
|-----------------12-10---------------------12-15-15fb--------------|
|-----------------------pb10r-10p8-10-------------------------------|
|-11-12------\--/---------------------------------------------------|
|-------------------------------------------------------------------|
|-------------------------------------------------------------------|
|-------------------------------------------------------------------|

 Rpt Chorus 2 X with additional guitar

  ~~~~~~~~~~~~~~~~~~~~~~~~~~~~~~~~~~~~~~~~~~~~~
|----------------------------------------------------|
|----------------------------------------------------|
|----------------------------------------------------|
|----------------------------------------------------|
|----------------------------------------------------|
|-8------------7-----------\3----------/5------5-/7--|

|--------------------------------------------------------------|
|--------------------------------------------------------------|
|--------------------------------------------------------------|
|-----------------------7-9\--------------------7--9--7--10--9-|
|-----------7--9--------------------------6--9-----------------|
|-8-------------------------3---------/7-----------------------|

     ~~~~~~~~~~~~   h
|---------------------------------------------------|
|---------------------------------------------------|
|---------------------------------------------------|
|-9/10-----------\9-10p9-trill--\-------------------|
|---------------------------------------------------|
|--------------------------------3----7-\5---5-/7---|


  ~~~~~~~~~~~       ~~~~~~~~~~         ~~~~~~~~~~~~~~~~~
|--------------------------------------------------------|
|--------------------------------------------------------|
|--------------------------------------------------------|
|--------------------------------------------------------|
|------------7--10-9-----------\-------------------------|
|-8-----------------------------3-----7------------------|

 Outro

 Guitar 1
  C                  G                   A
                                          ~~~~~~~~~~~~
[---------------------------------------------------------|
[------------7-8p7----------------------------------------|
[-9-9-9-9----------9--7-7-7-7----7b--r7b5-5-----------4-7-|
[---------------------------------------------------------|
[---------------------------------------------------------|
[---------------------------------------------------------|
[Guitar 2
[            ~~~~~~                       ~~~~~~~~~~~~
[---------------------------------------------------------|
[---------------------------------------------------------|
[/5-5-5-5----5b----r--4-4-4-4----4b4-4b-2-2---------------|
[-----------------------------------------------------5-4-|
[---------------------------------------------------------|
[---------------------------------------------------------|

 Rpt to fade




END

comments
We did not receive enough feedback on this tab! Please rate:
print report bad tab
1 2 3 4 5
I want to post or [tab]
guest
You may want to rate the tab now too:
select rating
Please do not post tabs as comments. Select "correction" instead!