Oops, an error
Loading. Please wait.

Is There Anybody There Tab

version 3
version 3

Whole song

Interactive

5,263 views 1 this week
no commentswrite comment
1 2 3 4 5
please rate
add to favorites
launch autoscroll
font size
0
reset
how to read this tab
guitar tuner
Autoscroll
slow
fast
+/-
esc
set tempo
stop
Help us to improve Ultimate-Guitar.com Take our survey!
×
Author
Difficulty
intermediate
Band:  Scorpions
Album: Lovedrive
Song:  Is There Anybody There

Copyright (c)  (RCA) (1979)
Version 1.0 - (01/07/06)


.  - palm mute           /  - slide up to
\  - slide down to       ~  - vibrato
h  - hammer on           b  - Bend
p  - pull off            Suffixes for bend
t  - tap                 f  - full bend    h - half bend
ph - pinched harmonic    q  - quarter bend t - tap bend
                         p  - pre bend
*  - see comment         ^  - Hold bend    r release bend
x  - Stuccatto           ~  - vibrato bend
,  - slight palm mute    () - ghost note, sustained note
"  - tremolo note        <> - harmonic

Tuning E A D G B E

 Main Riff

 Guitar 1 clean
[------------------------------------------|
[-----12-12-----12-12-----12-12-----12-12--|
[-----11-11-----11-11-----11-11-----11-11--|
[-x-x-9--9--x-x-9--9--x-x-9--9--x-x-9--9---|
[------------------------------------------|
[------------------------------------------|
[Guitar 2
[[PM]
[-----7--7---------------------------------|
[-----7--7---------------------------------|
[---------------7---------(7)------/9---\--|
[-----------x---7---------(7)------/9---\--|
[-------------x-5---------(5)--------------|
[-7-7--------------------------------------| Rpt 3 X

 Guitar 1 clean
[------------------------------------------|
[-----12-12-----12-12-----12-12-----12-12--|
[-----11-11-----11-11-----11-11-----11-11--|
[-x-x-9--9--x-x-9--9--x-x-9--9--x-x-9--9---|
[------------------------------------------|
[------------------------------------------|
[ Guitar 2
[[PM]
[-----7--7---------------------------------|
[-----7--7---------------------------------|
[---------------7---------(7)--------------|
[-----------x---7---------(7)--------------|
[-------------x-5---------(5)--------9\7---|
[-7-7--------------------------------7\5---|
[ Guitar 3
[[PM]
[-----7--7---------------------------------|
[-----7--7---------------------------------|
[---------------7---------(7)--------------|
[-----------x---7---------(7)--------------|
[-------------x-5---------(5)--------------|
[-7-7--------------------------------------|

|--------------------------------------------------|
|--------------------------------------------------|
|-7----(7)----5----(5)----2----(1)----9----(9)---\-|
|-7----(7)----5----(5)----1----(1)----9----(9)---\-|
|-5----(5)----3----(3)----2----(2)----7----(7)---\-|
|--------------------------------------------------|


|-------------------------|
|-------------------------|
|-7----(7)----5----(5)----|
|-7----(7)----5----(5)----|
|-5----(5)----3----(3)----|
|-------------------------|


 Guitar 1 clean
[------------------------------------------|
[-----12-12-----12-12-----12-12-----12-12--|
[-----11-11-----11-11-----11-11-----11-11--|
[-x-x-9--9--x-x-9--9--x-x-9--9--x-x-9--9---|
[------------------------------------------|
[------------------------------------------|
[Guitar 2
[[PM]
[-----7--7---------------------------------|
[-----7--7---------------------------------|
[---------------7---------(7)--------------|
[-----------x---7---------(7)--------------|
[-------------x-5---------(5)-------9\7----|
[-7-7-------------------------------7\5----|
[Guitar 3
[------------------------------------------|
[------------------------------------------|
[------------------------------------------|
[------------------------------------------|
[-9---------------(9)----------------------|
[-7---------------(7)----------------------|

 Bridge

|--------------------------------------------------|
|--------------------------------------------------|
|-7----(7)----5----(5)----2----(2)----9----(9)---\-|
|-7----(7)----5----(5)----1----(1)----9----(9)---\-|
|-5----(5)----3----(3)----2----(2)----7----(7)---\-|
|--------------------------------------------------|


|-------------------------|
|-------------------------|
|-7----(7)----5----(5)----|
|-7----(7)----5----(5)----|
|-5----(5)----3----(3)----|
|-------------------------|

 Guitar 1 clean
[------------------------------------------|
[-----12-12-----12-12-----12-12-----12-12--|
[-----11-11-----11-11-----11-11-----11-11--|
[-x-x-9--9--x-x-9--9--x-x-9--9--x-x-9--9---|
[------------------------------------------|
[------------------------------------------|
[Guitar 2
[[PM]
[-----7--7---------------------------------|
[-----7--7---------------------------------|
[---------------7---------(7)------/9---\--|
[-----------x---7---------(7)------/9---\--|
[-------------x-5---------(5)--------------|
[-7-7--------------------------------------| Rpt 3 X

 Guitar 1 clean
[------------------------------------------|
[-----12-12-----12-12-----12-12-----12-12--|
[-----11-11-----11-11-----11-11-----11-11--|
[-x-x-9--9--x-x-9--9--x-x-9--9--x-x-9--9---|
[------------------------------------------|
[------------------------------------------|
[ Guitar 2
[[PM]
[-----7--7---------------------------------|
[-----7--7---------------------------------|
[---------------7---------(7)--------------|
[-----------x---7---------(7)--------------|
[-------------x-5---------(5)--------9\7---|
[-7-7--------------------------------7\5---|

 Verse clean guitar

 Riff A

|-7-7-----7---7-7-7---7-----|
|-7-7-----7---7-7-7---7-----|
|-----x-x---x-------x---x---|
|-----x-x---x-------x---x---|
|---------------------------|
|---------------------------| Rpt 2 X

 Riff B

|-5-5-5-----5---5-5-5---5-5----|
|-5-5-5-----5---5-5-5---5-5----|
|-------x-x---x-------x-----x--|
|-------x-x---x-------x-----x--|
|------------------------------|
|------------------------------| 

 Rpt Riff A 2 X
 Rpt Riff B
 Rpt Riff A

 Chorus

 Guitar 1
[-----------------------------------------------------|
[-8---------------------------------------------------|
[-7-------2--------7---------9---------\--------------|
[-5-------2--------7---------9---------\5-------------|
[---------0--------5---------7---------\5-------------|
[---------------------------------------3-------------|
[Guitar 2
[---7-----/-9------/14-------/16---------7------7-----|
[-----8---/---10---/---15----/---17--------8-0----8-0-|
[-------7-/------9-/------14-/------16----------------|
[-----------------------------------------------------|
[-----------------------------------------------------|
[-----------------------------------------------------|

 Guitar 1
[---------------|
[---------------|
[-------9-7-----|
[---9---9-7-----|
[---9-----------|
[-7-------------|
[Guitar 2
[---7----7------|
[-----7----7----|
[---------------|
[---------------|
[---------------|
[---------------|
[Guitar 3
[---------------|
[---------------|
[---------------|
[---------------|
[-9-----(9)-----|
[-7-----(7)-----|

 Guitar 1
[-----------------------------------------------------|
[-8---------------------------------------------------|
[-7-------2--------7---------9---------\--------------|
[-5-------2--------7---------9---------\5-------------|
[---------0--------5---------7---------\5-------------|
[---------------------------------------3-------------|
[Guitar 2
[---7-----/-9------/14-------/16----------------------|
[-----8---/---10---/---15----/---17-------------------|
[-------7-/------9-/------14-/------16----------------|
[-----------------------------------------------------|
[-----------------------------------------------------|
[-----------------------------------------------------|

 Rpt Main Riff
 Rpt Verse
 Rpt Chorus

 Rpt Main 10 X for guitar solo backing

 Guitar solo
                                          ~~~~~~~~~~~
|-19-\--/19-\-----------------------8-------------------7------------|
|-----------------10b-r-b-----10b-r---8-10-b---------7----10p7-------|
|-------------------------<7>----------------------------------9b--r-|
|--------------------------------------------------------------------|
|--------------------------------------------------------------------|
|--------------------------------------------------------------------|

      ~~~~~~                    ~~~~
|-------------------------------------------------------------14-|
|----------------------12-12121212--15b---------------19---------|
|-7-9--------7---------------------------------7/14/16---13/14---|
|-----9------7---------------------------------------------------|
|------------------x\--------------------------------------------|
|------------------x-\-------------------------------------------|

                          ~~~~~~~                   ~~~~~~~~~~~~
|-------12------9-------------------------------------------------|
|-----------------12-----10b-----r-12-12-10-12-14b-12-----------\-|
|-11-13----9-11------7/9------------------------------------------|
|-----------------------------------------------------------------|
|-----------------------------------------------------------------|
|-----------------------------------------------------------------|


|--------------------------------14-17p15--|
|-15-17-b---19-b--------14-15-17-----------|
|------------------12/14-------------------|
|------------------------------------------|
|------------------------------------------|
|------------------------------------------|

 Guitar 1
   ~~~~~~~~~~~               ~~~~~~~~~~~
[-17fb--------17fbr17p14-17-17fb-----------|
[------------------------------------------|
[------------------------------------------|
[------------------------------------------|
[------------------------------------------|
[------------------------------------------|
[Guitar 2
[   ~~~~~~~~~~               ~~~~~~~~~~~
[-20fb--------20fbr20p17-20-20fb-----------|
[------------------------------------------|
[------------------------------------------|
[------------------------------------------|
[------------------------------------------|
[------------------------------------------|


 Rpt Chorus
 Rpt Main Riff
 Rpt Bridge to fade



END

Suggest correction
Give kudos to tab author, rate the tab!
1 2 3 4 5
comments
print report bad tab
guest
You may want to rate the tab now too:
select rating
Please do not post tabs as comments. Select "correction" instead!