Oops, an error
Loading. Please wait.

Is There Anybody There Tab

version 4
version 4

Whole song

Interactive

4,245 views 6 this week
no commentswrite comment
1 2 3 4 5
please rate
add to favorites
launch autoscroll
font size
0
reset
how to read this tab
guitar tuner
Autoscroll
slow
fast
+/-
esc
set tempo
stop
Help us to improve Ultimate-Guitar.com Take our survey!
×
Difficulty
Tuning
advanced
D# G# C# F# A# D#
-    = 1/2 time
--   = 1   time
---- = 2   times

Intro

Bm

e--------------------------|
b--------------------------|
g--------------------------|
d--------------------------| (4x)
a-5-5--7b--5~----------2~--|
E----------------2--5------|

Ahh AhhAhhAhh Ahh...

  D    C    B    E        D    C    B

e-2----0----2----0--------2----0----2--|
b-3----1----3----0--------3----1----3--|
g-2----0----3----1--------2----0----3--|
d-0----2----3----2--------0----2----3--|
a-x----3----2----2--------x----3----2--|
E-x----x----x----0--------x----x----x--|

Bm

Open my mind let me find new vibrations

Bm						A

Tell me the way I must take to reach my destination

				Bm

And a place where I can stay


e--------------------------|
b-5/7----------------------|
g------7b------------------|
d----------7---------------|
a-------------5--7b--5-----|
E-----------------------7--|

Bm

Where is the love of my of life couldn't find her

Bm					      A

Show the way to find back to myself 'cause I'm no where

				Bm

In the darkness of this days

e--------7~----10~--|
b-7--5b-------------|
g-------------------|
d-------------------|
a-------------------|
E-------------------|

	 G       A	    D		E

Is there anybody there who feels that vibration

      G			    Bm

Who shows me the way to my love

e------------|
b-5/7--3-----|
g---------4--|
d------------|
a------------|
E------------|

	 G       A	    D		E

Is there anybody there with that inclination

      G			    Bm

To bring back to sun to my heart

e--------------------------|
b--------------------------|
g--------------------------|
d--------------------------| (2x)
a-5-5--7b--5~----------2~--|
E----------------2--5------|

Bm

I find myself in a state of confusion

Bm						A

Life's like a pantomime trick or a laser illusion
				Bm

Where's a place that I can stay

e-5-------------------------|
b---5--7b--5--3--5b--7------|
g-----------------------4~--|
d---------------------------|
a---------------------------|
E---------------------------|

Bm

Save me don't let me get lost in the ocean

Bm						A

I need your help everyday to control my emotions

			    Bm

In the darkness of these days


e--------7~----10~--|
b-7--5b-------------|
g-------------------|
d-------------------|
a-------------------|
E-------------------|

	 G       A	    D		E

Is there anybody there who feels that vibration

      G			    Bm

Who shows me the way to my love

e-7p5------------|
b------9p7--7p5--|
g----------------|
d----------------|
a----------------|
E----------------|

	     G       A          D         E

Is there anybody there with that inclination

      G			           Bm

To bring back to sun to my heart -> e--18


Solo

e-17b------------------10------------------------7--------------------7\----|
b--------10b12r10--12------10b12r10--8-10b----7-----7-----------------7\----|
g-----------------------------------------------------7-9b--7h9-------7\----|
d---------------------------------------------------------------7~----------|
a---------------------------------------------------------------------------|
E---------------------------------------------------------------------------|

	Durante o vibrato use um pull-off (During the vibrato use a pull-off).
----------14--12--10--9p7------------------------7p5----------------------------------|
-7b/9--9-------------------9--12p10-10b12r10~---------9p7--7p5--5~~--3h5------2~p0----|
--------------------------------------------------------------------------4~----------|
--------------------------------------------------------------------------------------|
--------------------------------------------------------------------------------------|
--------------------------------------------------------------------------------------|

--------12b--14b--------------------14--16--14--16b----16b18r16--14--16b----16b18r16----------|
-10/12--------------11--12--14--16----------------------------------------------------15--17--|
----------------------------------------------------------------------------------------------|
----------------------------------------------------------------------------------------------|
----------------------------------------------------------------------------------------------|
----------------------------------------------------------------------------------------------|

--------------------13--15----------12--13b--10--12---------7--------------------|
-17b19r17b19r17~------------13--15-------------------12~-------9--7--------------|
---------------------------------------------------------------------9b--\4--4~--|
---------------------------------------------------------------------------------|
---------------------------------------------------------------------------------|
---------------------------------------------------------------------------------|

	 G       A	    D		E

Is there anybody there who feels that vibration

      G			    Bm

Who shows me the way to my love

e------------|
b-5/7--3-----|
g---------4--|
d------------|
a------------|
E------------|

	 G       A	    D		E

Is there anybody there with that inclination

      G			    Bm

To bring back to sun to my heart

e----------------------------------------------------|
b----------------------------------------------------|
g----------------------------------------------------|
d----------------------------------------------------|
a-5-5--7b--5~----------2~----5-5-7b--5~----------2~--|
E----------------2--5----------------------2--5------|

Ahh AhhAhhAhh Ahh...

  D    C    B    E        D    C    B

e-2----0----2----0--------2----0----2--|
b-3----1----3----0--------3----1----3--|
g-2----0----3----1--------2----0----3--|
d-0----2----3----2--------0----2----3--|
a-x----3----2----2--------x----3----2--|
E-x----x----x----0--------x----x----x--|

e-7---------------------------|
b------7--9-----5-------------|
g------------9-----7\5--------|
d-----------------------7--9--|
a-----------------------------|
E-----------------------------|

Ahh AhhAhhAhh Ahh...

  D    C    B    E        D    C    B

e-2----0----2----0--------2----0----2--|
b-3----1----3----0--------3----1----3--|
g-2----0----3----1--------2----0----3--|
d-0----2----3----2--------0----2----3--|
a-x----3----2----2--------x----3----2--|
E-x----x----x----0--------x----x----x--|

e-7p5---------------------------------------|
b------9p7--7p5-----------------------------|
g----------------9--------------------------|
d-------------------9----7--9--5--7---------|
a------------------------------------7--9~--|
E-------------------------------------------|

e------------------------------------10------------------------2--|
b--------------------------------6/9-----12--10--12--12--12----3--|
g-----------------------7--9b--7-------------------------------4--|
d---------------3/7--9-----------------------------------------4--|
a-5-5-7b--5~---------------------------------------------------2--|
E--------------------------------------------------------------x--|
Suggest correction
Give kudos to tab author, rate the tab!
1 2 3 4 5
comments
print report bad tab
guest
You may want to rate the tab now too:
select rating
Please do not post tabs as comments. Select "correction" instead!