Oops, an error
Loading. Please wait.

Lady Starlight Tab

version 1
version 1

Solo

Interactive

13,065 views 18 this week
3 commentsread comments
1 2 3 4 5
worth learning
x 3
add to favorites
launch autoscroll
font size
0
reset
how to read this tab
guitar tuner
Autoscroll
slow
fast
+/-
esc
set tempo
stop
Help us to improve Ultimate-Guitar.com Take our survey!
×
Contributor
solo
e|--------------------------------------------------|
b|10~-10-11-13--------------10~-10-11-13------------|
g|-------------10~-12-12^r~--------------10~-12^r~--|
d|--------------------------------------------------|
a|--------------------------------------------------|
e|--------------------------------------------------|

e|-----------------------------------------------------|
b|------------14^-14^r--------------14-----------------|
g|13\14-15-16----------16-14\15~-15----15^r-13-15------|
d|-------------------------------------------------14~/|
a|-----------------------------------------------------|
e|-----------------------------------------------------|

e|-----------------------------------------|
b|----13-12--------------------------------|
g|\12-------12~-13-12-14^r-14-13-12-10-12~/|
d|-----------------------------------------|
a|-----------------------------------------|
e|-----------------------------------------|

e|--------------------------------------------------|
b|10~-10-11-13--------------10~-10-11-13------------|
g|-------------10~-12-12^r~--------------10~-12^r~--|
d|--------------------------------------------------|
a|--------------------------------------------------|
e|--------------------------------------------------|

e|------12---------------------17^-17-15-14-15-14----------|
b|14-15----15-14-12-12h14p12~/--------------------15----15^|
g|---------------------------------------------------14----|
d|---------------------------------------------------------|
a|---------------------------------------------------------|
e|---------------------------------------------------------|

e|--------------14-15-17-15p14-14h15p14/---------------|
b|15^-17-14-15^--------------------------9-10-11-12-11-|
g|-----------------------------------------------------|
d|-----------------------------------------------------|
a|-----------------------------------------------------|
e|-----------------------------------------------------|

e|----------------------------------------------------|
b|9-10-11-12-11--9-10-11-12-11--10-11-10-9-10-9-8-9-8-|
g|----------------------------------------------------|
d|----------------------------------------------------|
a|----------------------------------------------------|
e|----------------------------------------------------|

e|---------------------------------------------------------|
b|7-8-7h8p7-5-7-6^~-6^~-8-5-6^-----------------------------|
g|-----------------------------6-7-6h7p6-5-6-7-6h7p6-5-6-7^|
d|---------------------------------------------------------|
a|---------------------------------------------------------|
e|---------------------------------------------------------|

e|----------------------------------------------------|
b|--------------9-10-11-12-11-12-11-11~-11-10-9-10^~--|
g|6-7-------------------------------------------------|
d|----5-4---4~/---------------------------------------|
a|--------5-------------------------------------------|
e|----------------------------------------------------|

e|17^-17-15-14-15-14-------------------------------------------|
b|-------------------15----15^~-9-10-12-10-9-9h10p9-8-9-8-8^---|
g|----------------------14-------------------------------------|
d|-------------------------------------------------------------|
a|-------------------------------------------------------------|
e|-------------------------------------------------------------|

e|---------------------------------------------------------|
b|------11-10-------11-10-------11-10-------11-10----------|
g|11-11-------11-11-------11-11-------11-11-------11-------|
d|---------------------------------------------------------|
a|---------------------------------------------------------|
e|---------------------------------------------------------|f# a# a

e|--------------------------------------------------------|
b|---11-10-------11-10-------11-10-------11-10-9-10-11^---|
g|11-------11-11-------11-11-------11-11------------------|
d|--------------------------------------------------------|
a|--------------------------------------------------------|
e|--------------------------------------------------------|

e|------------------------------------------------------|
b|11^r-11-9-11-10^--9^r-7-9-8^--8-7---------------------|
g|----------------------------------7-6-----------------|
d|--------------------------------------6-5-------------|
a|------------------------------------------5-4---------|
e|------------------------------------------------------|
                                        |--pm--|
e|--------------------------------------------------|
b|10~-10-11-13--------------10~-10-11-13------------|
g|-------------10~-12-12^r~--------------10~-12^r~--|
d|--------------------------------------------------|
a|--------------------------------------------------|
e|--------------------------------------------------|
comments
We did not receive enough feedback on this tab! Please rate:
print report bad tab
1 2 3 4 5
3 comments total.
0 reply
Lady Starlight 74 wrote on July 21 2008, 04:44 am

imprecise

0 reply
jansenariomag1 12 wrote on April 29 2016, 04:48 am

your tab is wrong

0 reply
jansenariomag1 12 wrote on April 29 2016, 04:49 am

your tab is wrong

I want to post or [tab]
guest
You may want to rate the tab now too:
select rating
Please do not post tabs as comments. Select "correction" instead!