Oops, an error
Loading. Please wait.

Living And Dying Tab

2,844 views 6 this week
no commentswrite comment
1 2 3 4 5
please rate
add to favorites
launch autoscroll
font size
0
reset
how to read this tab
guitar tuner
Autoscroll
slow
fast
+/-
esc
set tempo
stop
Help us to improve Ultimate-Guitar.com Take our survey!
×
Author
Difficulty
intermediate
Band:  Scorpions
Album: In Trance
Song:  Living and Dying

Copyright (c)  (RCA) (1975)
Version 1.0 - (11/01/06)





.  - palm mute           /  - slide up to
\  - slide down to       ~  - vibrato
h  - hammer on           b  - Bend
p  - pull off            Suffixes for bend
t  - tap                 f  - full bend    h - half bend
ph - pinched harmonic    q  - quarter bend t - tap bend
*  - see comment         ^  - Hold bend    r release bend
x  - Stuccatto           ~  - vibrato bend
,  - slight palm mute    () - ghost note, sustained note
"  - tremolo note        <> - Trill

Tunning Eb Ab Db Gb Bb Eb
 

  Guitar 1
  Use vibrato throughout
E[-------------------------------------------------------|
B[-------------------------------------------------------|
G[----------4----3------------------------5--4-----------|
D[-2--4--5----5-----5\2----/5--4-------------------------|
A[-----------------------------------2-------------------|
E[-------------------------------------------------------|
 [Guitar 2
E[-------------------------------------------------------|
B[-------------------------------------------------------|
G[-9----(9)----9-----------------------------9-----(9)---|
D[-9----(9)----9-10---(10)--10\9----(9)----9-9-----(9)---|
A[-7----(7)----7-10---(10)--10\9----(9)----9-7-----(7)---|
E[---------------8----(8)---8-\7----(7)----7-------------|

  Guitar 1
  Use vibrato throughout
                 h
E[-------------------------------------------------------|
B[--------------------7-7b--7r-7---------7brp5-----------|
G[----------4--7-9-----------------9-8-------------------|
D[-2--4--5-----------------------------------------------|
A[-------------------------------------------------------|
E[-------------------------------------------------------|
 [Guitar 2
E[-------------------------------------------------------|
B[-------------------------------------------------------|
G[-9----(9)----9-----------------------------9-----(9)---|
D[-9----(9)----9-10---(10)--10\9----(9)----9-9-----(9)---|
A[-7----(7)----7-10---(10)--10\9----(9)----9-7-----(7)---|
E[---------------8----(8)---8-\7----(7)----7-------------|

 Pre-verse lead fill
  Guitar 1
                       h      h       h  
E[-12-14-15-12-------------------------------|
B[-------------15-12\11----------------------|
G[----------------------14p12-14p12----------|
D[----------------------------------12-14----|
A[-------------------------------------------|
E[-------------------------------------------|
 [Guitar 2
E[-------------------------------------------|
B[-------------------------------------8-----|
G[-------------------------------------9-----|
D[-------------------------------------9-----|
A[-------------------------------------7-----|
E[-------------------------------------------|

 Verse(chords implied by organ)

  Guitar 1
   E                C              B             E
E[-------------------------------------------------------------------|
B[-----------------volume swell--------------------------------------|
G[---------------------------pb10rp8---------------------------------|
D[---(14)--\---------------------------------------------------------|
A[-------------------------------------------------------------------|
E[-------------------------------------------------------------------|
 [Guitar 2
E[-------------------volume swell---------7--------------------------|
B[----------------------------pb8rp7---------------------------------|
G[-------------------------------------------------------------------|
D[-------------------------------------------------------------------|
A[-------------------------------------------------------------------|
E[-------------------------------------------------------------------|

  Guitar 1
   E                C              B             E
E[-------------------------------------------------------------------|
B[-----------------volume swell--------------------------------------|
G[----------------------------pb6rp4---(4)---------------------------|
D[-----------------------------------------------9------(9)----------|
A[-----------------------------------------------7------(7)----------|
E[-------------------------------------------------------------------|
 [Guitar 2
E[-------------------------------------------------------------------|
B[-8-----------------------------------------------------------------|
G[-9-----------------------------------------------------------------|
D[-9---------------------------------------------9------(9)----------|
A[-7---------------------------------------------7------(7)----------|
E[-------------------------------------------------------------------|

 Chorus

  Guitar 1

E[--------------------------------------------------------------|
B[--------------------------------------------------------------|
G[----------------------------------------9\--9\----------------|
D[-5----(5)----/10---(10)---12----(12)----9\--9\--2----(2)------|
A[-5----(5)----/10---(10)---12----(12)----7\--7\--2----(2)------|
E[-3----(3)----/8----(8)----10----(10)------------0----(0)------|
 [Guitar 2
E[-3----(3)-----------------------------------------------------|
B[-3----(3)-----------------3-----(3)---------------------------|
G[-0----(0)-----5----(5)----2-----(2)-----9\--9\----------------|
D[-0----(0)----\5----(5)----0-----(0)-----9\--9\--2----(2)------|
A[-------------\3----(3)------------------7\--7\--2----(2)------|
E[-3----(3)----\----------------------------------0----(0)------|
 
  Guitar 1
E[--------------------------------------------------|
B[--------------------------------------------------|
G[---------------9----(9)-------------9----(9)------|
D[-12----(12)----9----(9)----10\-12\--9----(9)------|
A[-12----(12)----7----(7)----10\-12\--7----(7)------|
E[-10----(10)----------------8\--10\----------------|
 [Guitar 2
E[--------------------------------------------------|
B[-3-----(3)---------------------3-3----------------|
G[-2-----(2)-----9-----(9)---5---2-2--9----(9)------|
D[-0-----(0)-----9-----(9)---5---0-0--9----(9)------|
A[---------------7-----(7)---3--------7----(7)------|
E[---------------0-----(0)------------0----(0)------|

 Rpt


 2nd lead
  Use vibrato throughout
E-------------------------------------------------------|
B-------------------------------------------------------|
G----------4----3------------------------5--4-----------|
D-2--4--5----5-----5\2----/5--4-------------------------|
A-----------------------------------2-------------------|
E-------------------------------------------------------|

                 ~~~                         h                      h
E-------------------------------------------------------------------------|
B----------pb15r15--13-12-------------------------------------------------|
G-------------------------14-14br-14-12\11\9-11--(11)--9\8--pb11r-8-9-(9)-|
D-2--4--5-----------------------------------------------------------------|
A-------------------------------------------------------------------------|
E-------------------------------------------------------------------------|

 Pre verse lead fill

                                     ~~~~~~~~~~~~    
E-12/15-12-------------------------------------------------|
B----------15-12----------------10-10b---(12)-----r10p8----|
G----------------14brp12 14br12-------------------------9--|
D----------------------------------------------------------|
A----------------------------------------------------------|
E----------------------------------------------------------|

 Rpt Verse

 Lead fill
E-----------|
B-----------|
G-pb6r\4----|
D-----------|
A-----------|
E-----------|

 Rpt Chorus 2 X

  Guitar 1
E[------------------------|
B[------------------------|
G[----------9----(9)----\-|
D[-10--12---9----(9)----\-|
A[-10--12---7----(7)----\-|
E[-8---10-----------------|
 [Guitar 2
E[------------------------|
B[-----3-3----------------|
G[-5-5-2-2--9----(9)----\-|
D[-5-5-0-0--9----(9)----\-|
A[-3-3------7----(7)----\-|
E[----------0----(0)------|

  Guitar 1
E[-------------------------------------------|
B[-------------------------------------------|
G[---------------------9--------(9)----------|
D[-10--(10)--12--(12)--9--------(9)----------|
A[-10--(10)--12--(12)--7--------(7)----------|
E[-8---(8)---10--(10)------------------------|
 [Guitar 2
E[-------------------------------------------|
B[-----------3---(3)-------------------------|
G[-5---(5)---2---(2)---9--------(9)----------|
D[-5---(5)---0---(0)---9--------(9)----------|
A[-3---(3)-------------7--------(7)----------|
E[---------------------0--------(0)----------|




END

Suggest correction
What's this?
You can suggest a correction to this tab. Community and Mods will review your correction and vote to approve or reject it.
comments
We did not receive enough feedback on this tab! Please rate:
print report bad tab
1 2 3 4 5
guest
You may want to rate the tab now too:
select rating
Please do not post tabs as comments. Select "correction" instead!