Oops, an error
Loading. Please wait.

Living For Tomorrow Tab

version 1
version 1

Whole song

Interactive

6,062 views 3 this week
no commentswrite comment
1 2 3 4 5
please rate
add to favorites
launch autoscroll
font size
0
reset
how to read this tab
guitar tuner
Autoscroll
slow
fast
+/-
esc
set tempo
stop
Help us to improve Ultimate-Guitar.com Take our survey!
×
Author
Difficulty
novice
INTRO

Guitar 1 (w/o dist.): Em Am9 Em (Em Am9)
Guitar 2 (w/ dist.):

e|---------------------|--------------------------------------------|
B|----15b-15b-12-------|--------------------------------------------|
G|-12------------12-14-|--------------14b—16b-----14r11-------------|
D|---------------------|-12h14r12-14--------------------12h14r12-14-|
A|---------------------|--------------------------------------------|
E|---------------------|--------------------------------------------|
 |---------2X----------|

e|-15b--15-14-12----12--15-12--------------|-------|-------------|
B|---------------15-----------15-12-15-15b-|-------|-------------|
G|-----------------------------------------|-12----|-------------|
D|-----------------------------------------|--12---|-12h14r12-14-|
A|-----------------------------------------|---12--|-------------|
E|-----------------------------------------|----14-|-------------|
                                           |--2X---|
e|---------------------------------|
B|---------------------------------|
G|---------------------------------|
D|---7-9-5-7-5-7-4-5-4-5-4-2-4-0-2-|
A|-7-------------------------------|
E|---------------------------------|
 |--------------P.M.---------------|

e|-17b-17-15-17-17b---17b-17-15------------------12---------------|
B|------------------------------17------12-13-15----15-12-15-15b--|
G|---------------------------------17-----------------------------|
D|----------------------------------------------------------------|
A|----------------------------------------------------------------|
E|----------------------------------------------------------------|

e|----------------------------------------------------|--------------|
B|----------------------------------------------------|-----15b------|
G|-14b------------------------------------------------|-12-----------|
D|-------14-16-17-17b~~~~~~17-16-14h16----------14~~~~|--------------|
A|-------------------------------------17~~~~~~-------|--------------|
E|----------------------------------------------------|--------------|

e|---------------------|--------------------------------------------|
B|----15b-15b-12-------|--------------------------------------------|
G|-12------------12-14-|--------------14b—16b-----12p14-------------|
D|---------------------|-12h14r12-14--------------------12h14r12-14-|
A|---------------------|--------------------------------------------|
E|---------------------|--------------------------------------------|

I'm still living for tomorrow
I'm living for today

Guitar 1 (w/ dist.): E5 D5 E5 C5 E5 D5 E5
Guitar 2 (w/ dist.):

e|-------------------------------------------15-17-17b-17b-15-17------|
B|-12/15--15-13-12-10/15----15-15-13-12-10\1--------------------------|
G|-----------------------12-------------------------------------16-19-|
D|--------------------------------------------------------------------|
A|--------------------------------------------------------------------|
E|--------------------------------------------------------------------|

e|-----------------------------------------------|
B|----17-------15-------14-------12----------8---|
G|-16----16-14----14-12----12-11----11-9-7-9---9-|
D|-----------------------------------------------|
A|-----------------------------------------------|
E|-----------------------------------------------|

VERSE 1:
Guitar 1 & 2(w/o dist.): (Em D Em Am Em D Em) 2x

BRIDGE
Guitar 1 & 2 (w/ dist): G5 A5 C5 D5

CHORUS:
Guitar 1 & 2 (w/ dist): [E5 C5 E5 C5 E5 (B5 C5) D5] 2x

VERSE 2:
Guitar 1 & 2(w/o dist.): (Em D Em Am Em D Em) 2x

BRIDGE
CHORUS
SOLO
Rhythm (w/ dist.): [E5 D5 E5 C5 E5]2x

BRIDGE
CHORUS
BRIDGE
OUTRO
Rhythm (w/ dist.): {[E5 B5 (C5-B5-G5)]2x  E5 B5 C5 D5}2x   D5       D5
Suggest correction
Give kudos to tab author, rate the tab!
1 2 3 4 5
comments
print report bad tab
guest
You may want to rate the tab now too:
select rating
Please do not post tabs as comments. Select "correction" instead!