Oops, an error
Loading. Please wait.

Longing For Fire Tab

version 1
version 1

Solo

Whole song

1,583 views 3 this week
no commentswrite comment
1 2 3 4 5
please rate
add to favorites
launch autoscroll
font size
0
reset
how to read this tab
guitar tuner
Autoscroll
slow
fast
+/-
esc
set tempo
stop
Help us to improve Ultimate-Guitar.com Take our survey!
×
Author
Difficulty
advanced
Band:  Scorpions
Album: In Trance
Song:  Longing For Fire(guitar solos)

Copyright (c)  (RCA) (1975)
Version 1.0 - (23/02/06)




Eb Ab Db Gb Bb Eb

 
 Guitar solo 1

                 h                  h~~~  ~~        h
E-------------------------------------------------------|
B--------------------------pb14r-10-12------------------|
G----9-11-12-11-12p11-9-----------------11br11-12-9-11--|
D-12--------------------12------------------------------|
A-------------------------------------------------------|
E-------------------------------------------------------|
                         h       ~~~~~
E-------------------------------------------------------------|
B--------------------------------------------12---------------|
G-11b-11b-11fbr---9-11-9-11p9----------12-14----14-12-14-12---|
D--------------12-------------12---/14------------------------|
A--------------------------------9----------------------------|
E-------------------------------------------------------------|
                      ~~~
E----------------------------1212----1212-14-12----12---------------|
B-15fbrp12-15-12----------15b-----15b-----------15----15-12---------|
G----------------14b-12-------------------------------------14------|
D-------------------------------------------------------------------|
A-------------------------------------------------------------------|
E-------------------------------------------------------------------|

E----12-14-15-17-15-14-12----12--------------|
B-15----------------------15----15-12--------|
G-------------------------------------14-12--|
D--------------------------------------------|
A--------------------------------------------|
E--------------------------------------------|

E----22fb-r19-17------------------------------22fb-r19-17-----------|
B-17-------------20-------19------19------17--------------20--------|
G-------------------19-21----1919----1919--------------------19-21--|
D-------------------------------------------------------------------|
A-------------------------------------------------------------------|
E-------------------------------------------------------------------|

E----1717-19p17-15\14----17-------14-15p14-12----12-----------12----|
B-19------------------17----15-17-------------15----15-12-----------|
G---------------------------------------------------------14b-------|
D-------------------------------------------------------------------|
A-------------------------------------------------------------------|
E-------------------------------------------------------------------|

E----------------------------15-12-------15br15-12----12-------------|
B----------------12-15p12----------15-12-----------12----15-14-12----|
G-14brp12----12-----------14--------------------------------------14-|
D---------14---------------------------------------------------------|
A--------------------------------------------------------------------|
E--------------------------------------------------------------------|
                                                      ~~~~~~~~~
E---------------------------------------------------------------|
B-12-14p12\11-12-12-11------------------------------------------|
G----------------------14-12----14-12---------------------------|
D----------------------------14-------14------------------------|
A----------------------------------------14\13\12\11\10---------|
E---------------------------------------------------------------|


 Guitar solo 2

                   h           ~~~~~~~~~              ~~~~~~                
E----------------------------22fbr19fb--19br17-15-14---------|
B----------------------------------------------------17b-----|
G------9-11-12-11-12p11-9------------------------------------|
D-1212--------------------12---------------------------------|
A------------------------------------------------------------|
E------------------------------------------------------------|

        ~~~~               ~~
E-pb22r19fb-22fb-19-17-15-14--14-----------14--------12-------------|
B--------------------------------151515-17----15-17\----15-12-15p12-|
G-------------------------------------------------------------------|
D-------------------------------------------------------------------|
A-------------------------------------------------------------------|
E-------------------------------------------------------------------|

E----------------------------------------------------------------|
B--------12--------12----------------------------14fbr-10-12p10--|
G-12-14b----12-14-----14-12-11----------11-----------------------|
D------------------------------14-12-14----12-14-----------------|
A----------------------------------------------------------------|
E----------------------------------------------------------------|

E-----------18fb-18fb-r-15-17-15-14----14------1414-----|
B-----------------------------------17----1515------15--|
G-12p11-10----------------------------------------------|
D-------------------------------------------------------|
A-------------------------------------------------------|
E-------------------------------------------------------|
   ~~~~~~~~~                      ~~
E------------17-19-17-15\14----------14brp12-14b---------17-14------|
B-20fb-19b------------------17b-17b--------------1515-17-------15---|
G-------------------------------------------------------------------|
D-------------------------------------------------------------------|
A-------------------------------------------------------------------|
E-------------------------------------------------------------------|

                                              ~~~~~
E-12------------------------------------------------|
B----15-12------------------------------------------|
G----------14-12----1414-12-------------------------|
D----------------14---------------------------12----|
A---------------------------14-13-12----12-14-------|
E------------------------------------15-------------|
                          ~~~~~~~
E---------------------------------|
B-------------------------15fb----|
G-----12-14-14brp12-14-12---------|
D-/14-----------------------------|
A---------------------------------|
E---------------------------------|

 Played over the top of the outro crashes
                                         ~~~~~~~~~~~~~~~~~~~~~~~~
E-------------------------------------------------------------------|
B-------------------------------------------------------------------|
G---------------------------------11--11-13-------------------------|
D-14-14--14-14--14-14--14-14--14------------------------------------|
A-------------------------------------------------------------------|
E-------------------------------------------------------------------|



END

Suggest correction
Give kudos to tab author, rate the tab!
1 2 3 4 5
comments
print report bad tab
guest
You may want to rate the tab now too:
select rating
Please do not post tabs as comments. Select "correction" instead!