Oops, an error
Loading. Please wait.

Longing For Fire Tab

version 2
version 2

Whole song

1,047 views 1 this week
no commentswrite comment
1 2 3 4 5
please rate
add to favorites
launch autoscroll
font size
0
reset
how to read this tab
guitar tuner
Autoscroll
slow
fast
+/-
esc
set tempo
stop
Help us to improve Ultimate-Guitar.com Take our survey!
×
Author
Difficulty
intermediate
Band:  Scorpions
Album: In Trance
Song:  Longing For Fire

Copyright (c)  (RCA) (1975)
Version 1.0 - (13/02/06)



.  - palm mute           /  - slide up to
\  - slide down to       ~  - vibrato
h  - hammer on           b  - Bend
p  - pull off            Suffixes for bend
t  - tap                 f  - full bend    h - half bend
ph - pinched harmonic    q  - quarter bend t - tap bend
*  - see comment         ^  - Hold bend    r release bend
x  - Stuccatto           ~  - vibrato bend
,  - slight palm mute    () - ghost note, sustained note
"  - tremolo note        <> - Trill

Tunning Eb Ab Db Gb Bb Eb
 

 Intro

E--------------------------|
B--------------------------|
G-5-5--5-5--5-5--5-5--5--5-|
D-5-5--5-5--5-5--5-5--5--5-|
A-3-3--3-3--3-3--3-3--3--3-|
E--------------------------|

 Main Riff

E----------|
B----------|
G-7--7-----|
D-7--7-----|
A-5--0--x--|
E----------| Rpt 4 X

 Verse

 Rpt Main Riff 4 X
 The bass implies the G chord
E------------|
B------------|
G----5-------|
D-5--5-------|
A-3-----x----|
E------------| Rpt 2 X

 Rpt Main Riff 2 X

 Rpt above

 Chorus

E---------------------------------------------------------------|
B---------------------------------------------------------------|
G---------------------------------------------------------------|
D-5---5--x-x-5---5--x-x-9---9--x-x-9---9--x-x-7---7--x-x-7---7--|
A-3-x-3--x-x-3-x-3--x-x-7-x-7--x-x-7-x-7--x-x-5-x-5--x-x-5-x-5--|
E---------------------------------------------------------------|

E-------------------------|
B-------------------------|
G-------------------------|
D-9---9--x-x-9---9--x-x---|
A-7-x-7--x-x-7-x-7--x-x---|
E-------------------------|

E---------------------------------------------------------------|
B---------------------------------------------------------------|
G---------------------------------------------------------------|
D-5---5--x-x-5---5--x-x-9---9--x-x-9---9--x-x-7---7--x-x-7---7--|
A-3-x-3--x-x-3-x-3--x-x-7-x-7--x-x-7-x-7--x-x-5-x-5--x-x-5-x-5--|
E---------------------------------------------------------------|

E------------------------|
B------------------------|
G------------------------|
D-9-------(9)------------|
A-7-------(7)------------|
E------------------------|

 Backing for solo


E------------------------|
B------------------------|
G------------------------|
D-5---5------7---7-------|
A-3-x-3--x-x-5-x-5--x-x--|
E------------------------| Rpt 3 X

E------------------------|
B------------------------|
G------------------------|
D-9---9------7---7-------|
A-7-x-7--x-x-5-x-5--x-x--|
E------------------------|

E------------------------|
B------------------------|
G------------------------|
D-5---5------7---7-------|
A-3-x-3--x-x-5-x-5--x-x--|
E------------------------| Rpt 3 X


E-----------------------|
B-----------------------|
G-----------------------|
D-9-----\7-/9--(9)--\---|
A-7-----\5-/7--(7)--\---|
E----0------------------|

 Rpt Chorus

 Rpt backing for guitar solo.

 Outro

E----------------------------------------------------|
B----------------------------------------------------|
G-5-5--5-5--5-5--5-5--7--9---------(9)---------------|
D-5-5--5-5--5-5--5-5--7--9---------(9)---------------|
A-3-3--3-3--3-3--3-3--5--7---------(7)---------------|
E----------------------------------------------------|


END

Suggest correction
Give kudos to tab author, rate the tab!
1 2 3 4 5
comments
print report bad tab
guest
You may want to rate the tab now too:
select rating
Please do not post tabs as comments. Select "correction" instead!