Oops, an error
Loading. Please wait.

Love Drive Bass Tab

796 views 6 this week
no commentswrite comment
1 2 3 4 5
excellent!
x 1
add to favorites
launch autoscroll
font size
0
reset
guitar tuner
Tab Pro tools
  • play this tab
  • loop segment
  • change instrument
  • show fretboard
  • metronome
Autoscroll
slow
fast
+/-
esc
set tempo
stop
Contributor
Difficulty
intermediate
Scorpions
Love Drive
Bass
tabbed by Bill Gallagher

Intro   x13               x13
G||--------|--------|--------|--------|
D||--tr----|--------|--tr----|--------|
A||--------|--------|--------|--------|
E||7-777---|7-------|7-777---|7*------|

Verse 1  x8              x7         x8                x6
G||--------|--------|--------|--------|--------|--------|--------|
D||--tr----|--------|--tr----|--tr----|--------|--------|--------|
A||7-777---|7-77----|--------|7-777---|7-77----|--------|01------|
E||--------|--------|7-777---|--------|--------|7-777---|--------|

chorus
G||--------|--------|--------|--------|--------|--------|
D||--------|--------|--------|--------|--------|--------|
A||5---3---|----3---|5---3---|----3---|5--/9-99|5-4-3-2-|
E||--------|3-------|--------|5-------|--------|--------|

G||--------|---------|--------|---------|
D||--------|---------|--------|---------|
A||7-5-7-5-|7-5-3-5-3|7-5-7-5-|7-5-5-7-5|
E||--------|---------|--------|---------|
                                          1st end
G||--------|--------|--------|---------||--------|--------|
D||--------|--------|--------|---------||--------|--------|
A||5---3---|----3---|5---3---|----3----||5--5555-|5-4-3-2-|
E||--------|3-------|--------|5--------||--------|--------|

2nd end
G||-------------|--------|
D||-------------|--------|
A||5/12-12121212|5-4-3-2-|
E||-------------|--------|

bridge           x4                 x4
G||--------|--------|--------|---------|
D||--------|--tr----|--------|---------|  (x2)
A||7-77----|--------|7-77----|---------|
E||--------|7-777---|--------|7-777----|

Verse
Chorus (w 2nd ending)

Solo                      x3
G||--------|--------|--------|---------|
D||--------|--------|--------|---------|  (x7)
A||--------|----320-|--------|87-------|
E||7-777*--|320-----|7-777---|---------|

Chorus (w 2nd ending)

Outro
G||--------|---------|--------|
D||--------|---------|--------|  (x4)
A||7-5-7-5-|7-5-3-5-3|5-4-3-2-|
E||--------|---------|--------|

G||--------|--------|--------|---------|
D||--------|--------|--------|---------|
A||7-5-7-5-|7-5-5-7-|5-------|3-------3|
E||--------|--------|--------|---------|

Its not quite right but it'll give you an idea.
comments
We did not receive enough feedback on this tab! Please rate:
print report bad tab
1 2 3 4 5
I want to post or [tab]
guest
You may want to rate the tab now too:
select rating
Please do not post tabs as comments. Select "correction" instead!