Oops, an error
Loading. Please wait.

Lovedrive Tab

version 1
version 1

Whole song

Interactive

3,589 views 9 this week
no commentswrite comment
1 2 3 4 5
3 more votes to show rating
add to favorites
launch autoscroll
font size
0
reset
how to read this tab
guitar tuner
Autoscroll
slow
fast
+/-
esc
set tempo
stop
Help us to improve Ultimate-Guitar.com Take our survey!
×
Author
Difficulty
novice
 
Tabbed by:Watts
Email:Urmomsputty@yahoo.com

First Tab I've done. Not sure how many times to play the Solo Rhythm and Outro so I 
didn't write how many times at the bottom.

Tuning:Standard
Intro Riff: Can gallop bassline between each note
e|-------------------------------|
B|-------------------------------|
G|9--14--9--14--9--14--9--14--9--|
D|9--14--9--14--9--14--9--14--9--|
A|7--12--7--12--7--12--7--12--7--|
E|-------------------------------|
Verse:
e|-----------------------------------------------------------------|
B|-----------------------------------------------------------------|
G|-----------------------------------------------------------------|
D|9--------------------------9-------------------------------------|
A|9--------------------------9-------------------------------------|
E|7--------------------------7-------------------------------------|
Main Riff:
e|-------------------------------------|
B|-------12----------------------------|
G|-------12-12-------------------------|
D|-------12---14-12-14-----------------|
A|-------------------------------------|
E|0-0-0--------------------------------|
Chorus:
e|-------------------------------------|
B|-------------------------------------|
G|5--7-----5--5--7-----5--7------------|
D|5--7--5--5--5--7--5--5--7------------|
A|3--5--5--3--3--5--5--3--5--------5---|
E|------3-----------3--------3-2-1-----|
Chorus Pt 2:
e|-------------------------------------|
B|-------------------------------------|
G|9-7-9-7-9-7-9-7---9-7-9-7-9-7-9-7----|
D|9-7-9-7-9-7-9-7---9-7-9-7-9-7-9-7----|
A|7-5-7-5-7-5-7-5---7-5-7-5-7-5-7-5----|
E|-------------------------------------|
Solo Rhythm:
e|------------------------------------------------------------------------|
B|------12----------------------------------------------------------------|
G|------12------------------------------------------------------------9--7|
D|------12------------------------------------------------------------9--7|
A|-----------------3-2------------------------------------------------7--5|
E|0-0-0----3-2-3-5-----5-3--0-0-0--0-0-0--0-0-0--0-0-0--0-0-0--0-0-0------|
Outro:
e|-------------------------------------|
B|-------------------------------------|
G|9-7-9-7-9-7-9-7----------------------|
D|9-7-9-7-9-7-9-7----------------------|
A|7-5-7-5-7-5-7-5--------5-------------|
E|-----------------3-2-1---------------|

Order:
Intro
Verse
Main Riff x2
Verse
Main Riff x4
Chorus
Chorus Pt 2
Chorus
Main Riff x4
Verse
Main Riff x2
Verse
Main Riff x4
Chorus
Chorus pt 2
Chorus
Solo Rhythm
Chorus
Chorus pt 2
Chorus
Outro (end on E)
************************************

| /   slide up
| \   slide down
| h   hammer-on
| p   pull-off
| ~   vibrato
| +   harmonic
| x   Mute note
| b   Bend
| pb  Pre-bend
| br  Bend release
| pbr Pre-bend release
| brb Bend release bend

************************************
Suggest correction
Give kudos to tab author, rate the tab!
1 2 3 4 5
comments
print report bad tab
guest
You may want to rate the tab now too:
select rating
Wanna post a correction for this tab? Suggest correction