Oops, an error
Loading. Please wait.

Loveem Or Leaveem Tab

3,010 views 1 this week
1 commentread comment
1 2 3 4 5
accurate
x 4
add to favorites
launch autoscroll
font size
0
reset
how to read this tab
guitar tuner
Autoscroll
slow
fast
+/-
esc
set tempo
stop
Help us to improve Ultimate-Guitar.com Take our survey!
×
Date  : 14th,July,2004
Song  : Love'em Or Leave'em
Artist: Scorpions
Album : Unbreakable (2004)
I am  : Mohamed Hassan...20 years old...Egyptian


Intro :

Frist Riff :

|--------------------|
|--------------------|
|-------------2(ring)|
|-5-8-5-7b--5-2------|
|-3-6-3-5b--3-0------|
|--------------------|repeat 3 times


Second Riff :

------------------------|---------------------------|
------------------------|---------------------------|
------------------------|---------------------------|
------------------------|---------------------------|
------------------------|---------------------------|
-0-2-3-0-5b-0-2-0-2-3-0-|-0-2-3-0-5b-0-2-0-3-2-0----|


Verse

It's a power chords A5 (577xxx) followed by Riff 2 all with heavy Distortion
listen to the song to get the Rhythem

D5
Blowing'cross the universe
Like a shooting star that lost its way
Looking back with no regrets
Living tor what hasn't happened yet

Chorus :

Two Guitars here :
Guitar one strums the Power chords listen to the song for pattern
Guitar Two plays Riff 3

Love'em Or Leave'em ,No rhyme or reason
|------------------------------------------------------|
|------------------------------------------------------|
|----------10----------12------------10----------------|
|-10-------10----------12------------10----------------|
|-10-------8-----------10------------8-----------------|
|-8----------------------------------------------------|
|
|-------------------------------------------------|
|-------------------------------------------------|
|----------10----10---10--------------------------|
|-10-12-13----13---------13-12-10-12-13-----------|
|-------------------------------------------------|
|-------------------------------------------------|

Break out to make out,No change in the season
|------------------------------------------------------|
|------------------------------------------------------|
|----------10----------12-------------10---------------|
|-10-------10----------12-------------10---------------|
|-10-------8-----------10-------------8----------------|
|-8----------------------------------------------------|
|
|------------------------------------------------|
|------------------------------------------------|
|----------10----10--12-10-----------------------|
|-10-12-13----13-----------13-12-10-12-----------|
|------------------------------------------------|
|------------------------------------------------|

Love'em or Leave'em,put out or get out

|------------------------------------------------------|
|------------------------------------------------------|
|----------10-----------12--------------10-------------|
|-10-------10-----------12--------------10-------------|
|-10-------8------------10--------------8--------------|
|-8----------------------------------------------------|
|
|-------------------------------------------------|
|-------------------------------------------------|
|----------10----10---10--------------------------|
|-10-12-13----13---------13-12-10-12-13-----------|
|-------------------------------------------------|
|-------------------------------------------------|

Simple survival ,No more denial

|-------------------------------------------------------|
|-------------------------------------------------------|
|-----------10-----------12--------------10-------------|
|-10--------10-----------12--------------10-------------|
|-10--------8------------10--------------8--------------|
|-8-----------------------------------------------------|
|
|-------------------------------------------------|
|-------------------------------------------------|
|----------10----10-12-10-12-13b------------------|
|-10-12-13----13----------------------------------|
|-------------------------------------------------|
|-------------------------------------------------|

Love 'em or leave 'em

Roller coaster flies of the track
Hits you in the face, stabs you in the back
They Jake your right, leave nothing left
Steal you blind, your mind and leave you deaf

In this Chorus a third electric plays something like this
With the same chorus pattern
----------------------|
----8h9-8h9(hold 9)-8-|
----------------------|
----------------------|
----------------------|
----------------------|

Love 'em or leave 'em
No rhyme or reason
State of the nation
Pure intoxication
Feel the vibration
The anticipation
Simple survival
No more denial

The fast lick before the bridge
------------------------------------------------|
---16-15-18b20-18-16-15-------------------------|
------------------------17-15-------------------|
------------------------------18-17-15-13-12----|
------------------------------------------10----|
------------------------------------------10----|

Bridge :

D5         E5
Dont wanna waste no time
    F#5          G#5
I'm never losing track
D5                   E5
I've seen il all and so much more
    F#5         G#5
But I ain't seen nothing yet


Love 'em or leave 'em
No rhyme or reason
State of the nation
Pure intoxication
Feel the vibration
The anticipation
Simple survival
No more denial

Love 'em or leave 'em

This is just the basics,I didn't tab the solo cause i'm kinda busy now,i'll try to post
it as soon as possible
Keep it Rockin'
Suggest correction
What's this?
You can suggest a correction to this tab. Community and Mods will review your correction and vote to approve or reject it.
comments
print report bad tab
1 comment total.
0 reply
District 1,416 wrote on February 17 2010, 11:32 am

It doesn't really sound like the song at all, the riffs and chords are wrong. If you'd just transferred it into a different key, it would still be all wrong.

guest
You may want to rate the tab now too:
select rating
Please do not post tabs as comments. Select "correction" instead!