Oops, an error
Loading. Please wait.

Lovin Me To Death Tab

999 views 1 this week
no commentswrite comment
1 2 3 4 5
please rate
add to favorites
launch autoscroll
font size
0
reset
how to read this tab
guitar tuner
Autoscroll
slow
fast
+/-
esc
set tempo
stop
Help us to improve Ultimate-Guitar.com Take our survey!
×
Author
Artist: Scorpions
Album: Humanity Hour 1
Song: Lovin' Me To Death (Track 5)
Tuning: standard eBGDAE

This is another fav song in this album... it's quite easy... Enjoy it..

intro
e|--------|---------|--------|--8-8-8-8/-10-10-10-10/--|
B|---10---|---------|---10---|-------------------------|
G|-9----8-|--5----7-|-9----8-|-------------------------|
D|--------|-----7---|--------|-------------------------|
A|--------|---------|--------|-------------------------|
E|--------|---------|--------|-------------------------|
  Am    F    C    G   Am   F    C        G

 <          x2        ><     x2  ><     x2     >
e|----------|----------|----------|------------|
B|----------|----------|----------|------------|
G|----------|----------|----------|-7-7--7-7---|
D|----------|----------|-4-4--4-4-|-7-7--7-7---|
A|-7-7--7-7-|-8-8--7-7-|-4-4--4-4-|-5-5--5-5---|
E|-5-5--5-5-|-5-5--5-5-|-2-2--2-2-|------------|

 <          x2        >
e|----------|----------|----------|
B|----------|----------|----------|
G|----------|----------|----------| this direct to the tab below
D|----------|----------|-4-4--4-4-|
A|-7-7--7-7-|-8-8--7-7-|-4-4--4-4-|
E|-5-5--5-5-|-5-5--5-5-|-2-2--2-2-|

e|----------------------------------------------------------------------|
B|----------------------------------------------------------------------|
G|-5-5-5-5---------------------------------5-5-5-5-7-7-7-7-10-10--------|
D|-5-5-5-5-3-3-3-3-7-7-7-7-5-5-5-5-3-3-3-3-5-5-5-5-7-7-7-7-10-10-5-5-5--|
A|-3-3-3-3-3-3-3-3-7-7-7-7-5-5-5-5-3-3-3-3-3-3-3-3-5-5-5-5--8--8-5-5-5--|
E|---------1-1-1-1-5-5-5-5-3-3-3-3-1-1-1-1-----------------------3-3-3--|

chorus (play x4)
e|-----------|-----------|-----------|------------|
B|-----------|-----------|-----------|------------|
G|-----------|-----------|-5-5-5-5-5-|------------|
D|-7-7-7-7-7-|-3-3-3-3-3-|-5-5-5-5-5-|-5-5-5-5-5--|
A|-7-7-7-7-7-|-3-3-3-3-3-|-3-3-3-3-3-|-5-5-5-5-5--|
E|-5-5-5-5-5-|-1-1-1-1-1-|-----------|-3-3-3-3-3--|
                                       ^^^^^^^^^^^
*at the 4th time, the music pauses at this C || part,while meine keep on singing 'youre 
me to death!!'

e|--------|---------|--------|
B|---10---|---------|---10---|
G|-9----8-|--5----7-|-9----8-|
D|--------|-----7---|--------|
A|--------|---------|--------|
E|--------|---------|--------|

e|------8----8-10-13-\-8-/-10---|
B|---10---10--------------------|
G|-9----------------------------|
D|------------------------------|
A|------------------------------|
E|------------------------------|

this bridge is played by two guitar and repeated two times on this part
  <              x3                >
e|----------------------------------------------------------------------|
B|------------------------------------------------------------8-8-8-8---|
G|-9-9-9-9-9-9-9-9--1010101010101010-9-9-9-9-9-9-9-9--10101010----------|
D|----------------------------------------------------------------------|
A|----------------------------------------------------------------------|
E|-7-5-7-5-7-5-7-5--7-5-7-5-7-5-7-5--7-5-7-5-7-5-7-5--7-5-7-5-7-5-7-5---|

the solo is quite puzzling, but i can tab a few of the solo
e|----------------------------------------------------------------------|
B|-------8-------5-6-5--------------------------------------------------|
G|-9---7---5---4-------7-5-7--I CAN"T TAB ANOTHER....^_^----------------|
D|----------------------------------------------------------------------|
A|----------------------------------------------------------------------|
E|----------------------------------------------------------------------|

will someone figure out the solo??????? pleeazzz..........
Suggest correction
What's this?
You can suggest a correction to this tab. Community and Mods will review your correction and vote to approve or reject it.
comments
We did not receive enough feedback on this tab! Please rate:
print report bad tab
1 2 3 4 5
guest
You may want to rate the tab now too:
select rating
Please do not post tabs as comments. Select "correction" instead!