Oops, an error
Loading. Please wait.

Lust Or Love Bass Tab

711 views 3 this week
no commentswrite comment
1 2 3 4 5
1 last vote to show rating
add to favorites
launch autoscroll
font size
0
reset
guitar tuner
Autoscroll
slow
fast
+/-
esc
set tempo
stop
Help us to improve Ultimate-Guitar.com Take our survey!
×
Scorpions
Lust Or Love
Crazy World

Intro:
G|------------------------------------------------------|
D|------------------------------------------------------|
A|-33333-1-3-1--33333-1-3-1--1-33333-1-3-1--3333-1-3-1--|
E|--------------------------4-------------------------4-|

Verse:
G|-------------------------------------------------------------|-----|
D|----------------1111-1-1-3333-1-1----------------------------|-----|
A|-333-3-3-111-1-1-----------------3-1-------1-11-111-3-33-333-|-1-1-|
E|------------------------------------4444-44------------------|--4--|

G|-------------------------------------------------------------------|
D|-------------------------------------------------------------------|
A|-----------------1-11-111-1-11-1-3-1-----------------1-11-11-1-----|
E|-444-444-4-44-444-------------------4-44-444-4-44-444---------3333-|

Chorus:
G|-----------------------------------------------------------|
D|-----------------------------------------------------------|
A|-3-1-3--1-1111111------------3-1-3--1-1111111--------------|
E|-----------------111111114443----------------11111111114-3-|
Suggest correction
Give kudos to tab author, rate the tab!
1 2 3 4 5
comments
print report bad tab
guest
You may want to rate the tab now too:
select rating
Wanna post a correction for this tab? Suggest correction