Oops, an error
Loading. Please wait.

Make It Real Chords

version 1
version 1

Whole song

Interactive

6,050 views 7 this week
no commentswrite comment
1 2 3 4 5
please rate
add to favorites
launch autoscroll
font size
0
reset
transpose
0
reset
display chords
guitar tuner
Tab Pro tools
  • play this tab
  • loop segment
  • change instrument
  • show fretboard
  • metronome
×
Best way to learn
"Make It Real"
Autoscroll
slow
fast
+/-
esc
set tempo
stop
Contributor
Difficulty
intermediate
Intro: Dm   G (6X)

E|-------------------------------------------------------------------------------------|
B|-------------------------------8b--6-8-------/13b--13-10------------------13b--10-13-|
G|---------9--10--9-10-9----------------------------------12b--12-10-12--10------------|
D|---10/12---------------12--10--------------------------------------------------------|
A|-------------------------------------------------------------------------------------|
E|-------------------------------------------------------------------------------------|

E|---------12--13--12-13-12-------15b--15-13-15---18b--17------------------20b--17-20b-|
B|---13/15------------------15--13------------------------20b--20-18-20--18------------|
G|-------------------------------------------------------------------------------------|
D|-------------------------------------------------------------------------------------|
A|-------------------------------------------------------------------------------------|
E|-------------------------------------------------------------------------------------|

Dm       Bb                F       C
 You can always trust your inner feelings
Dm          Bb              F       Gm
 Cause they always tell the truth
Dm            Bb               F         C
 Where did it get you, then you're analyzing
Dm       Bb         F         Gm
 Just do what feels right for you

Dm       Bb            F       C
 If you take life as a crazy gamble
Dm         Bb     F          Gm
 Throw your dice, take your chance
Dm        Bb              F         C
 You will see it from the different angle
Dm       Bb      F         Gm
 And you too can join the dance

                      Dm   Gm
Make it real, not fantasy
     Dm   C
Fantasy
                      Dm   Gm
Make it real, not fantasy
     Dm       C  
Fantasy Oooh yeah

Dm       Bb          F       C
 Did you ever have a secret yearning
Dm          Bb           F    Gm
 Don't you know it could come true
Dm       Bb            F       C
 Now's the time to set wheels turning
Dm       Bb      F        Gm
 To open up your life for you

Dm      Bb                  F        C
 As you know there's always good and evil
Dm         Bb      F       Gm
 Make your choice don't be blind
Dm       Bb             F       C
 Open up your mind and don't be trivial
Dm        Bb         F        Gm
 There's a whole new world to find

                      Dm   Gm
Make it real, not fantasy
     Dm   C
Fantasy
                      Dm   Gm
Make it real, not fantasy
     Dm       C  
Fantasy Oooh yeah

Dm       Bb          F       C
 Did you ever have a secret yearning
Dm          Bb           F    Gm
 Don't you know it could come true
Dm       Bb            F       C
 Now's the time to set wheels turning
Dm       Bb      F        Gm
 To open up your life for you

Dm       Bb            F       C
 If you take life as a crazy gamble
Dm         Bb     F          Gm
 Throw your dice, take your chance
Dm        Bb              F         C
 You will see it from the different angle
Dm       Bb      F         Gm
 And you too can join the dance

                      Dm   Gm
Make it real, not fantasy
     Dm   C
Fantasy
                      Dm   Gm
Make it real, not fantasy
     Dm   C
Fantasy

                      Dm   Gm
Make it real, not fantasy
     Dm   C
Fantasy
                      Dm   Gm
Make it real, not fantasy
     Dm       C  
Fantasy Oooh yeah

---------------------
Thanks to JLS Org.© 2014 to chordify the song.
comments
We did not receive enough feedback on this tab! Please rate:
print report bad tab
1 2 3 4 5
I want to post or [tab]
guest
You may want to rate the tab now too:
select rating
Please do not post tabs as comments. Select "correction" instead!