Oops, an error
Loading. Please wait.

Night Lights tab

version 3
version 3

Whole song

262 views 1 this week
no commentswrite comment
1 2 3 4 5
2 more votes to show rating
add to favorites
×
Save as Personal and add changes to this tab that will be seen only by you. Learn more ›
×
You can save this tab as Personal to edit and correct it or add notes. All changes will be seen only by you. Learn more »
launch autoscroll
font size
0
reset
how to read this tab
guitar tuner
edit
Autoscroll
slow
fast
+/-
esc
set tempo
stop
Author
Difficulty
-------------------------------------------------------------------------------
                          NIGHT LIGHTS - Scorpions
-------------------------------------------------------------------------------

Tabbed by: JackMule
E-mail: PlayingSongs@hotmail.com

Editor Notes: Listen for the vibratos.

Tuning: 1/4 Step Down


Chorus:


e|------------------|
B|------------------|
G|----------11pbr13-|
D|------------------|
A|------------------|
E|------------------|

e|------------------|------------------|------------------|------------------|
B|------------------|------------------|------------------|------------------|
G|-10---------------|----------11pbr13-|-10------------11-|-----13pbr15b15r--|
D|------------------|------------------|------------------|-13---------------|
A|------------------|------------------|------------------|------------------|
E|------------------|------------------|------------------|------------------|

e|------------------|------------------|------------------|------------------|
B|------------------|------------------|------------------|------------------|
G|------------------|------------------|------------------|------------------|
D|-15-13----13-15---|-13b14------------|----------------8-|-8/10-------------|
A|-------15---------|---------12-------|-11h12p11---------|------------------|
E|------------------|------------------|------------------|------------------|


Verse:


e|------------------|-------------------------------------|-/4------|--------|
B|-6b7-6b7--------6-|-6b7--6--4-4------4-6-4--------------|---------|--------|
G|------------------|----------------6----------------6---|----5----|-----\--|
D|------------------|-------------------------------------|---------|--------|
A|------------------|-------------------------------------|---------|--------|
E|------------------|-------------------------------------|---------|--------|

e|------------------|------------------|------------------|------------------|
B|------------------|------------------|------------------|------------------|
G|------------------|-4-------1--------|-1/3------0h1p0h1-|-p0---------------|
D|--------/4--------|------------------|------------------|--------1/3\1-----|
A|-2----------------|------------------|------------------|------------------|
E|------------------|------------------|------------------|------------------|


Solo:


e|-13------16-------|------------------|-19br21--19-18--18h19----------18-16-|
B|-----14-----------|------------------|-------------------------------------|
G|------------------|------------------|-------------------------------------|
D|------------------|------------------|-------------------------------------|
A|------------------|------------------|-------------------------------------|
E|------------------|------------------|-------------------------------------|

e|-18---16h18p16---14---16---14h16p14---13---13h14\--------------------------|
B|---------------------------------------------------------------------------|
G|---------------------------------------------------------------------------|
D|---------------------------------------------------------------------------|
A|---------------------------------------------------------------------------|
E|---------------------------------------------------------------------------|

e|-------------------13----------------|-16----------------------------------|
B|-------------14-16-------------16-14-|-------------------------------------|
G|-------------------------------------|----16-------------------------------|
D|-------------------------------------|-------------------------------------|
A|-13-13-13-13-------------------------|-------------------------------------|
E|-------------------------------------|-------------------------------------|

e|-------------------------------------|-------------------------------------|
B|-13--14-16---------------------------|------------------16br19-------------|
G|-------------------------------------|-------------------------------------|
D|-------------------------------------|-------------------------------------|
A|-------------------------------------|-------------------------------------|
E|-------------------------------------|-------------------------------------|

e|-----------11-13b14--13b14--------13-|
B|--------11---------------------------|
G|-/13b15------------------------------|
D|-------------------------------------|
A|-------------------------------------|
E|-------------------------------------|

e|-13br14----13----11--11----------------11----------------------------------|
B|---------------------------14--14b---------14p11---------------------------|
G|--------------------------------------------------13br15--11---------------|
D|---------------------------------------------------------------------------|
A|---------------------------------------------------------------------------|
E|---------------------------------------------------------------------------|

e|-----------13------------------------|-------------------------------------|
B|--------13----16b18--16br18----------|-------------------------------------|
G|-/15b17------------------------------|-------------------------------------|
D|-------------------------------------|-------------------------------------|
A|-------------------------------------|-------------------------------------|
E|-------------------------------------|-------------------------------------|

e|------------------|------------------|------------------|------------------|
B|-16br17-16-----14-|-16b17----16br17--|-14h16------------|------------------|
G|------------------|------------------|------------------|----------11pbr13-|
D|------------------|------------------|------------------|------------------|
A|------------------|------------------|------------------|------------------|
E|------------------|------------------|------------------|------------------|



Chorus:


e|------------------|------------------|------------------|------------------|
B|------13b14r13b14-|-r13--------------|------------------|------------------|
G|-10---------------|----------11pbr13-|-10------------11-|------10/13/15----|
D|------------------|------------------|------------------|-13---------------|
A|------------------|------------------|------------------|------------------|
E|------------------|------------------|------------------|------------------|

e|------------------|-12--------12br15-|------------------|------------------|
B|------------------|------------------|------------------|------------------|
G|------------------|-----14-14--------|-13------------15-|-15/17------------|
D|-15p13----13-15---|------------------|------------------|------------------|
A|-------16---------|------------------|------------------|------------------|
E|------------------|------------------|------------------|------------------|


Verse:


e|---------------------------------------------------------------------------|
B|---------------------------------------------------------------------------|
G|-/15------13---13------11h13p11---10---10----------------------------------|
D|-----------------------------------------------13---13-----11h13p11---10---|
A|---------------------------------------------------------------------------|
E|---------------------------------------------------------------------------|
 |
e|---------------------------------------------------------------------------|
B|---------------------------------------------------------------------------|
G|---------------------------------------------------------------------------|
D|-/16------15---15------13h15p13---11---11----------------------------------|
A|-----------------------------------------------15---15-----13h15p13---11---|
E|---------------------------------------------------------------------------|

e|---------------------------------------------------------------------------|
B|---------------------------------------------------------------------------|
G|---------------------------------------------------------------------------|
D|-10------------------------------------------------------------------------|
A|----------13---13------11h13p11---9----9-----------------------------------|
E|-----------------------------------------------13---13-----11--------------|
 |
e|---------------------------------------------------------------------------|
B|---------------------------------------------------------------------------|
G|---------------------------------------------------------------------------|
D|---------------------------------------------------------------------------|
A|-11------------------------------------------------------------------------|
E|----------14---14------13h14p13---11---11------9----9------8---------------|

e|-/13------11---11------9h11p9-----8----8-----------------------------------|
B|-----------------------------------------------11---11------9h11p9----8----|
G|---------------------------------------------------------------------------|
D|---------------------------------------------------------------------------|
A|---------------------------------------------------------------------------|
E|---------------------------------------------------------------------------|
 |
e|---------------------------------------------------------------------------|
B|-/14------13---13------11h13p11---9----9-----------------------------------|
G|-----------------------------------------------12---12------10h12p10--8----|
D|---------------------------------------------------------------------------|
A|---------------------------------------------------------------------------|
E|---------------------------------------------------------------------------|

e|---------------------------------------------------------------------------|
B|-8-------------------------------------------------------------------------|
G|----------10---10------8h10p8-----6----6-----------------------------------|
D|-----------------------------------------------10---10-------8h10p8--------|
A|---------------------------------------------------------------------------|
E|---------------------------------------------------------------------------|
 |
e|---------------------------------------------------------------------------|
B|---------------------------------------------------------------------------|
G|-8-------------------------------------------------------------------------|
D|----------11---11------10h11p10---8----8-----------------------------------|
A|-----------------------------------------------11---11-------10h11p10--10--|
E|---------------------------------------------------------------------------|

e|---------------------------------------------------------------------------|
B|---------------------------------------------------------------------------|
G|-/13------11---11------9h11p9-----8----8-----------------------------------|
D|-----------------------------------------------11---11-------9h11p9----8---|
A|---------------------------------------------------------------------------|
E|---------------------------------------------------------------------------|
 |
e|---------------------------------------------------------------------------|
B|---------------------------------------------------------------------------|
G|---------------------------------------------------------------------------|
D|-/14------13---13------11h13p11---9----9-----------------------------------|
A|-----------------------------------------------13---13-------11h13p11--9---|
E|---------------------------------------------------------------------------|

e|---------------------------------------------------------------------------|
B|---------------------------------------------------------------------------|
G|---------------------------------------------------------------------------|
D|-8-------------------------------------------------------------------------|
A|----------11---11------9h11p9-----7----7-----------------------------------|
E|------------------------------------------------11---11------9-------------|
 |
e|---------------------------------------------------------------------------|
B|---------------------------------------------------------------------------|
G|---------------------------------------------------------------------------|
D|---------------------------------------------------------------------------|
A|-9-------------------------------------------------------------------------|
E|----------12---12------11h12p11---9----9--------7----7-------6-------------|

e|---------------------------------------------------------------------------|
B|-/16------14---14------13h14p13---11---11----------------------------------|
G|------------------------------------------------13---13------12h13p12--10--|
D|---------------------------------------------------------------------------|
A|---------------------------------------------------------------------------|
E|---------------------------------------------------------------------------|
 |
e|---------------------------------------------------------------------------|
B|-/13------11---11------9h11p9-----8----8-----------------------------------|
G|------------------------------------------------10---10------8h10p8----6---|
D|---------------------------------------------------------------------------|
A|---------------------------------------------------------------------------|
E|---------------------------------------------------------------------------|

e|---------------------------------------------------------------------------|
B|---------------------------------------------------------------------------|
G|-10------------------------------------------------------------------------|
D|----------13---13------11h13p11---10---10-------8----8---------------------|
A|---------------------------------------------------------------------------|
E|---------------------------------------------------------------------------|
 |
e|---------------------------------------------------------------------------|
B|---------------------------------------------------------------------------|
G|-6-------------------------------------------------------------------------|
D|----------10---10------8h10p8-----6----6--------5----5---------------------|
A|---------------------------------------------------------------------------|
E|---------------------------------------------------------------------------|


Outro:


{
e|------------------|------------------|------------------|------------------|
B|------------------|------------------|------------------|------------------|
G|------------------|------------------|------------------|------------------|
D|-1/3------------1-|-1/3----------1---|------------------|------------------|
A|------------------|----------------4-|-2-------1--------|-2----------------|
E|------------------|------------------|----------------4-|------------------|

e|------------------|------------------|------------------|------------------|
B|------------------|------------------|------------------|------------------|
G|------------------|------------------|------------------|------------------|
D|------------------|-2----------------|------------------|------------------|
A|-1----------------|------------------|-4/6------------4-|-4/6--------------|
E|------------------|------------------|------------------|------------------|
}X2

e|-------------------------------------|-------------------------------------|
B|-------------------------------------|-------------------------------------|
G|---------8---------------------------|-8-----------------------------------|
D|-------8---11b13--11b13--------------|---11p8----------------8--7--8-------|
A|-11b13-------------------------------|--------11pbr13p9---11---------------|
E|-------------------------------------|-------------------------------------|

e|-------------------------------------|-------------------------------------|
B|-------------------------------------|---------9--11-11b13--11b13----------|
G|----------10-------------------------|-10--12------------------------------|
D|-------10----13b15--13b15------------|-------------------------------------|
A|-13b15-------------------------------|-------------------------------------|
E|-------------------------------------|-------------------------------------|



************************************

| /   slide up
| \   slide down
| h   hammer-on
| p   pull-off
| b   Bend
| pb  Pre-bend
| br  Bend release
| pbr Pre-bend release
| brb Bend release bend

************************************
Suggest correction
Creating personal tab
Creating personal tab
You can edit any tab online and save it as your Personal.

You can edit, replace or remove any tab part or add personal notes – all changes will be seen only by you.

Personal tabs can be accessed anytime from any device, even offline.
Learn more »
Give kudos to tab author, rate the tab!
1 2 3 4 5
comments
print report bad tab
guest
You may want to rate the tab now too:
select rating
Wanna post a correction for this tab? Suggest correction