Oops, an error
Loading. Please wait.

No One Like You Tab

version 1
version 1
230,802 views 384 this week
40 commentsread comments
1 2 3 4 5
excellent!
x 80
add to favorites
launch autoscroll
font size
0
reset
how to read this tab
guitar tuner
Tab Pro tools
  • play this tab
  • loop segment
  • change instrument
  • show fretboard
  • metronome
Autoscroll
slow
fast
+/-
esc
set tempo
stop
This should be accurate.  

Good luck this is a great solo to learn.  It will sound best on a Gibson with Marshal amp!

INTRO SOLO:

p1
15b-----------------------------------------------------------------15------------------
----------------------------------------------------------------15b----(15)~~~~---------
----14--16--16b-r-14/12--14p12--------------14-16-16br-14s12----------------------------
--------------------------------14~~~~~-------------------------------------------------
----------------------------------------------------------------------------------------
----------------------------------------------------------------------------------------

p2
---------------17---------20---20b~~~---17---20---19p17---19p17--------17---------------
------17--20b------20p17------------------------------------------20-------20b~~~~~-----
-/17------------------------------------------------------------------------------------
----------------------------------------------------------------------------------------
----------------------------------------------------------------------------------------
----------------------------------------------------------------------------------------

p3
----------------------------------------------------------------------------------------
-19br--17------19b~~~~~~~~--------------------------------------------------------------
-----------19--------------------------------------------------------------------------
----------------------------------------------------------------------------------------
----------------------------------------------------------------------------------------
----------------------------------------------------------------------------------------


15b-----------------------------------------------------------------15------------------
----------------------------------------------------------------15b----(15)~~~~---------
----14--16--16b-r-14/16--14p12--------------14-16-16br-14s12----------------------------
--------------------------------14~~~~~-------------------------------------------------
----------------------------------------------------------------------------------------
----------------------------------------------------------------------------------------

p4
---------------17---------20b---20~~~---17---20p19p17---19p17------17-------------------
------17--20b------20p17---------------------------------------20b------20p17------17---
-/17---------------------------------------------------------------------------19-------
----------------------------------------------------------------------------------------
----------------------------------------------------------------------------------------
----------------------------------------------------------------------------------------
p4 cont.
--17------------------------------------------------------------------------------------
------20--19p17-------------------------------------17~~~~~~----------------------------
------------------19b-r--(19)p17------19-----17-----------------------------------------
----------------------------------------------------------------------------------------
----------------------------------------------------------------------------------------
----------------------------------------------------------------------------------------



Girl, Its been a long time that we've been apart, much to ling for a man who needs love.  
-----------0-------------------------------------------------------0-----------------------0-----
--------------1---------------1----------------------------------------1-------------------------
--------2--------2--------2-----------------------------------2------------2-----------2---------
-----2-------------0---3----------3----2---0---------------2------------------0----3-------------
--0---------------------------------------------3-------0---------------------------------------
-------------------------------------------------------------------------------------------------

I've missed you since I've been away........
-----------0--------------------------------------------------------0---------------0-----------0--
--------------1---------------1----------------------------------------1-----------------3---------
--------2--------2--------2------------------------------------0----------0-----------4-----4------
-----2-------------0---3--------3----2---0---------------2------------------0---2------------------
--0---------------------------------------------2--3-----------------------------------------------
---------------------------------------------------------------------------------------------------


---------------------------------------------------------------------------------------
---------------------------------------------------------------------------------------
---2--2---------------------2--2--------------------2--2-------------------------------
---2--2-----3--3----5--5----2--2----3--3----5--5----2--2---3--3---5--5---3------2------
---0--0-----3--3----3--3----0--0----3--3----5--5----0--0---3--3---5--5---3------2------
------------1--1----3--3------------1--1----3--3-----------1--1---3--3---1------0------


SOLO
----------------------------------------------------------------------------------------------
-------------------------------(semi harmonic)------------------------------------8b~~~~~~~---
---7(b-hold)------7-7-7-7-7-7-7-7-7-7-7-7(r)----(7b1/2) (7r)  p5 -7--5-----------------------
---------------------------------------------------------------------------------------------
---------------------------------------------------------------------------------------------
---------------------------------------------------------------------------------------------

----------------------------------------------------------------------------5-----------------
---------------------------------------------13b------------------------5-------8p5-----------
---------14b-----(14r)  p12----------14----------------------7---(7b)---------------8-7p5-----
(0)*-----------------------------14--------------------------------------------------------7--
----------------------------------------------------------------------------------------------
----------------------------------------------------------------------------------------------

-------------------------------------------------------------------------
-------------------------------------------------------------------------
--7p5--------------------------------------------------------------------
--------7p5--7---7p5-----------------------------------------------------
---------------------------7-6-5-3--------3b(slow)-----------------------
-------------------------------------------------------------------------


--17/20~~~~~~~----17-19-19b--17----------17----19/22b------------------17-------17-------
-----------------------------------20-------------------------------17-----20b------20b--
-----------------------------------------------------------(10) /17----------------------
-----------------------------------------------------------------------------------------
-----------------------------------------------------------------------------------------
-----------------------------------------------------------------------------------------

--17----------17----------17---------17---------17-----------17-20b--17--------17-20b--17-----17-
-------20b----------20b-------20b--------20b-------20b----------------------20b-----------20b----
-------------------------------------------------------------------------------------------------
-------------------------------------------------------------------------------------------------
-------------------------------------------------------------------------------------------------
-------------------------------------------------------------------------------------------------

-------------------------------------------------------------------------------------------------
-20b(hold)---20---20---20r-----20-20-20p17--------------17-h-20-p-17----------17-h-19-p-17-------
-----------------------------------------------------------------------19--------------------19--
-------------------------------------------------------------------------------------------------
-------------------------------------------------------------------------------------------------
-------------------------------------------------------------------------------------------------

------------------------------------------------------------------------------------------
-------------17-h-20-p-17----------17-h-20-p-17------------17--20-p-17----20b-------------
-------19--------------------20---------------------19------------------------------------
------------------------------------------------------------------------------------------
------------------------------------------------------------------------------------------
------------------------------------------------------------------------------------------


----17------------------------------------------------------------------------------
----------20-p-17---------17--------------------------------------------------------
--------------------20--------20-19--17---------------------------------------------
-------------------------------------------19--17-----------------------------------
----------------------------------------------------19-18-17-15b(hold)------15(r)---
------------------------------------------------------------------------------------
comments
print report bad tab
40 comments total. Showing first comments. show 1 bad comment
+2 reply
sodergren wrote on July 8 2004, 12:00 am

um, where are the harmonies?

0 reply
hepzibahbaptist wrote on November 1 2005, 02:42 pm

good tab

I want to post or [tab]
guest
You may want to rate the tab now too:
select rating
Please do not post tabs as comments. Select "correction" instead!