Oops, an error
Loading. Please wait.
We have an official No One Like You tab made by UG professional guitarists. Check out the tab »
×
3,648 views 9 this week
1 commentread comment
1 2 3 4 5
2 more votes to show rating
add to favorites
×
Save as Personal and add changes to this tab that will be seen only by you. Learn more ›
×
You can save this tab as Personal to edit and correct it or add notes. All changes will be seen only by you. Learn more »
launch autoscroll
font size
0
reset
how to read this tab
guitar tuner
backing track
0:00
0:00
edit
Autoscroll
slow
fast
+/-
esc
set tempo
stop
 NO ONE LIKE YOU
                            As recorded by Scorpions
                         (From the 1982 Album BLACKOUT)

Words by Klaus Meine

Music by Rudolf Schenker
Transcribed by Jibesh
email Jibesh@hotmail.com

          A5                   F5                   G5                   E5
      x 0 2 2 x x          1 3 3 x x x          3 5 5 x x x          0 2 2 x x x

Gtr I (E A D G B E) - 'Rhythm'
Gtr II (E A D G B E) - 'Lead'
Gtr III (E A D G B E) - 'Harmony'
Gtr IV (E A D G B E) - 'Clean'

 Intro
  Driving Rock Q=120
  A5              F5             G5                 A5
 4/4
  Gtr I
  ||                |    |        |      |           | |
  //                /    /        /      /           / /

  Gtr II
     ~~~~~~                                                 ~~
|---15b17=======|=(15)r\--------------------------|----------------|
|---------------|-------------12-12b13r(12)-------|----------------|
|---------------|----------14---------------14-12-|-14--12---------|
|---------------|---------------------------------|--------14------|
|---------------|---------------------------------|----------------|
|---------------|---------------------------------|----------------|


  F5           G5                 A5
    |  |        |      |           |    |
    /  /        /      /           /    /

    ~~~~                                     ~~~~~~~~~~~
|-------------------------------|--------15---------------------------|
|-----------12-12b13r(12)-------|-15b17-----15b17==(15)--(15)r-----17-|
|--------14---------------14-12-|------------------------------/17----|
|-(14)--------------------------|-------------------------------------|
|-------------------------------|-------------------------------------|
|-------------------------------|-------------------------------------|


  F5                   G5
   |    |               |      |
   /    /               /      /

                                   ~~
|-------------17-------20b24-(20)-20--|
|-20b22--(20)----20p17----------------|
|-------------------------------------|
|-------------------------------------|
|-------------------------------------|
|-------------------------------------|


  F5                              E5
   |                               |         |
   /                               /         /

                           ~~~~~                                    ~~~~
|-17-20p19p17-19p17----17----------------|-----------------------------------|
|-------------------20----20b22----------|-----------------------------------|
|---------------------------------19b21==|=(19)r(19)-17----19b21==(19)--19r\-|
|----------------------------------------|--------------19-------------------|
|----------------------------------------|-----------------------------------|
|----------------------------------------|-----------------------------------|


  A5              F5             G5                 A5
  ||                |    |        |      |           | |
  //                /    /        /      /           / /

     ~~~~~~                                                 ~~
|---15b17=======|=(15)r\--------------------------|----------------|
|---------------|-------------12-12b13r(12)-------|----------------|
|---------------|----------14---------------14-12-|-14--12---------|
|---------------|---------------------------------|--------14------|
|---------------|---------------------------------|----------------|
|---------------|---------------------------------|----------------|
|
| Gtr III
|    ~~~~~~                                                 ~~
|---20----------|-(20)\---------------------------|----------------|
|---------------|----------13-15-15b17r(15)-13-12-|-13--12---------|
|---------------|---------------------------------|--------14------|
|---------------|---------------------------------|----------------|
|---------------|---------------------------------|----------------|
|---------------|---------------------------------|----------------|


  F5           G5                 A5
    |  |        |      |           |    |
    /  /        /      /           /    /

    ~~~~                                     ~~~~~~~~~~~
|-------------------------------|--------15---------------------------|
|-----------12-12b13r(12)-------|-15b17-----15b17==(15)--(15)r-----17-|
|--------14---------------14-12-|------------------------------/17----|
|-(14)--------------------------|-------------------------------------|
|-------------------------------|-------------------------------------|
|-------------------------------|-------------------------------------|
|
|   ~~~~
|-------------------------------|--------20---------------------------|
|--------13-15-15b17r(15)-13-12-|-20b22-----22b24==(22)--(22)r-----17-|
|-(14)--------------------------|------------------------------/17----|
|-------------------------------|-------------------------------------|
|-------------------------------|-------------------------------------|
|-------------------------------|-------------------------------------|


  F5                   G5
   |    |               |      |
   /    /               /      /

                                   ~~
|-------------17-------20b24-(20)-20--|
|-20b22--(20)----20p17----------------|
|-------------------------------------|
|-------------------------------------|
|-------------------------------------|
|-------------------------------------|
|
|                                  ~~
|-------------17-------20b24-(20)-20--|
|-20b22--(20)----20p17----------------|
|-------------------------------------|
|-------------------------------------|
|-------------------------------------|
|-------------------------------------|


  F5                                              E5
   |                                               |
   /                                               /

|-17-20p19p17-19p17----17-------17----------------------|
|-------------------20----20b22----20p17-------17-20p17-|
|----------------------------------------19b21----------|
|-------------------------------------------------------|
|-------------------------------------------------------|
|-------------------------------------------------------|
|
|-10-13p12p10-12p10----10-------10----------------------|
|-------------------13----13b15----13p10-------10-13p10-|
|----------------------------------------12b14----------|
|-------------------------------------------------------|
|-------------------------------------------------------|
|-------------------------------------------------------|


   |                                         |
   /                                         /

|----17-----------------------------------|----------------|
|-20----20p19p17--------------------------|-17------(17)\--|
|----------------19-19b21r(19)p17-19--17--|----------------|
|-----------------------------------------|----------------|
|-----------------------------------------|----------------|
|-----------------------------------------|----------------|
|
|----10-----------------------------------|----------------|
|-13----13p12p10-12-12b13r(12)p10-12--10--|-12------(12)\--|
|-----------------------------------------|----------------|
|-----------------------------------------|----------------|
|-----------------------------------------|----------------|
|-----------------------------------------|----------------|


   Verse
    Gtr IV
||--------0-(0)-------|-------------------|-------0-(0)-------|-----1----|
||o-------------1-----|-----1-------------|-------------1-----|----------|
||------2---------2---|---2---------------|-----2---------2---|---2------|
||----2-------------0-|-3-----3-(3)-2-0---|---2-------------0-|-3--------|
||o-0-----------------|-----------------3-|-0-----------------|----------|
||--------------------|-------------------|-------------------|----------|


|-------0-(0)-------|-------------------|
|-------------1-----|-----1-------------|
|-----2---------2---|---2---------------|
|---2-------------0-|-3-----3-(3)-2-0---|
|-0-----------------|-----------------2-|
|-------------------|-------------------|
|
| Gtr I
|-------------------|-------------------|
|-------------------|-------------------|
|-------------------|-------------------|
|-------------------|-------------------|
|-------------------|-------------------|
|-------------------|-------------------|


|-------0-(0)-------|-----0--------------0-|
|-------------1-----|---------------3------|
|-----0---------0---|---------4-(4)---4----|
|---2-------------2-|-(2)------------------|
|-3-----------------|----------------------|
|-------------------|----------------------|
|
|-------------------|----------------------|
|-------------------|----------------------|
|-------------------|----------------------|
|-------------------|------------2--0------|
|-------------------|---------2-------2\---|
|-------------------|-----0-4--------------|


|-(0)-----0-(0)-------|---------1-(1)-------|
|---------------1-----|-------1-------------|
|-------2---------2---|-----2---------------|
|-----2-------------0-|--3------------2-0---|
|--0------------------|-------------------3-|
|---------------------|---------------------|
|
|---------------------|---------------------|
|---------------------|---------------------|
|---------------------|---------------------|
|---------------------|---------------------|
|---------------------|---------2-(2)-3-5---|
|--5--3-5-------5-3-1-|-(1)-----------------|


|-------0-(0)-------|---------1-(1)-------|
|-------------1-----|-------1-------------|
|-----2---------2---|-----2---------------|
|---2-------------0-|--3------------2-0---|
|-0-----------------|-------------------3-|
|-------------------|---------------------|
|
|                             ~
|-------------------|---------------------|
|-------------------|---------------------|
|-------------------|---------------------|
|-------------------|---------------------|
|-------------------|---------3-------2---|
|-5-3-5-------5-3-1-|-(1)-----------------|


|-------0-(0)-------|---------------------|
|-------------1-----|-------1-------------|
|-----2---------2---|-----2---------------|
|---2-------------0-|--3------3-(3)-2-0---|
|-0-----------------|-------------------2-|
|-------------------|---------------------|
|
|-------------------|---------------------|
|-------------------|---------------------|
|-------------------|---------------------|
|-------------------|---------------------|
|-------------------|---------2-(2)-3-5---|
|-5-3-5-------5-3-1-|-(1)-----------------|
|
| Gtr II
|-------------------|---------------------|
|-------------------|---------------------|
|-------------------|---------------------|
|-------------------|---------------------|
|-------------------|---------------------|
|-------------------|---------------------|


|------------0------|-----0--------------|--0---------|
|---1---------------|--------0-(0)-3---3-|-(3)--------|
|------0-(0)--------|----------------1---|-(1)--------|
|-----------------2-|-(2)----------------|-(2)--------|
|-3-----------------|--------------------|------------|
|-------------------|--------------------|------------|
|
|-------------------|--------------------|------------|
|-------------------|--------------------|------------|
|-5----5-(5)---/9-9-|--9-----------------|--9\--------|
|-5----5-(5)---/9-9-|--9-----------------|--9\--------|
|-3----3-(3)---/7-7-|--7-----------------|--7\--------|
|-------------------|--------------------|------------|
|
|                         ~~~~~~~~~~~~~~~
|-------------------|--------------------|------------|
|-------------------|--------------------|------------|
|-------------------|--------------------|------------|
|-------------------|--------------------|------------|
|-------------------|-----5--------------|------------|
|-------------------|--------7-----4---0-|--0---------|


 Chorus
  Gtr I
|-----------|-------------|-----------|-------------|
|-----------|-------------|-----------|-------------|
|-2-2-------|-------------|-2-2-------|-------------|
|-2-2-------|-3-3---5-5---|-2-2-------|-3-3---5-5---|
|-0-0-------|-3-3---5-5---|-0-0-------|-3-3---5-5---|
|-----------|-1-1---3-3---|-----------|-1-1---3-3---|


|-----------|-------------|------------------------|-------------------------|
|-----------|-------------|------------------------|-------------------------|
|-2-2-------|-------------|------------------------|-------------------------|
|-2-2-------|-3-3---5-5---|-3-----------------2----|-(2)---------------------|
|-0-0-------|-3-3---5-5---|-3-----------------2----|-(2)---------------------|
|-----------|-1-1---3-3---|-1-----------------0----|-(0)-----0------3--0-3-0-|
|
| Gtr II
|-----------|-------------|------------------------|-------------------------|
|-----------|-------------|------------------------|-------------------------|
|-----------|-------------|-7b9=====(7)r(7)p5-7b9==|=(7)r---[7]b9==(7)-------|
|-----------|-------------|------------------------|-------------------------|
|-----------|-------------|------------------------|-------------------------|
|-----------|-------------|------------------------|-------------------------|


                    1.
|------------------|-------------|-----------|-------------|
|------------------|-------------|-----------|-------------|
|--2--2------------|-------------|-2-2-------|-------------|
|--2--2------------|-3-3---5-5---|-2-2-------|-3-3---5-5---|
|--0--0------------|-3-3---5-5---|-0-0-------|-3-3---5-5---|
|------------------|-1-1---3-3---|-----------|-1-1---3-3---|
|
|------------------|-------------|-----------|-------------|
|------------------|-------------|-----------|-------------|
|-(7)---(7)r\------|-------------|-----------|-------------|
|------------------|-------------|-----------|-------------|
|------------------|-------------|-----------|-------------|
|------------------|-------------|-----------|-------------|


|-----------|-------------|-----------|---------||
|-----------|-------------|-----------|--------o||
|-2-2-------|-------------|-----------|---------||
|-2-2-------|-3-3---5-5---|-3-------2-|-(2)-----||
|-0-0-------|-3-3---5-5---|-3-------2-|-(2)----o||
|-----------|-1-1---3-3---|-1-------0-|-(0)-----||


  2.
|-------------|-----------------------|
|-------------|-----------------------|
|--2--2-------|-----------------------|
|--2--2-------|--3---3---5--5---------|
|--0--0-------|--3---3---5--5---------|
|-------------|--1---1---3--3---------|
|
| Gtr II
|  ~~~
|-------------|-----------------------|
|-------------|-----------------------|
|-(7)---------|-(7)r-------[7]b9r=(7)-|
|-------------|-----------------------|
|-------------|-----------------------|
|-------------|-----------------------|


|------------------------|-------------------------|
|------------------------|-------------------------|
|--2-----2---------------|-------------------------|
|--2-----2---------------|-3-3---5---5-------------|
|--0-----0---------------|-3-3---5---5-------------|
|------------------------|-1-1---3---3-------------|
|
|             ~
|------------------------|-------------------------|
|------------------------|---------[13]-(13)-[15]--|
|-[7]b9r(7)p5------------|-------------------------|
|-------------7----(7)\--|-------------------------|
|------------------------|-------------------------|
|------------------------|-------------------------|


|------------------------------|-----------------------|------------|--------|
|------------------------------|-----------------------|------------|--------|
|--2---------2-----------------|-----------------------|------------|--------|
|--2---------2-----------------|-3-3---------5-5-------|--3-------2-|-(2)----|
|--0---------0-----------------|-3-3---------5-5-------|--3-------2-|-(2)----|
|------------------------------|-1-1---------3-3-------|--1-------0-|-(0)----|
|
|                   ~~~~                                  ~~
|------------------------------|-----------------------|------------|--------|
|-15b16r(15)---13--------------|-----------------------|------------|--------|
|-----------------[14]---------|-----------------------|-10-------9-|-(9)----|
|------------------------------|-----------------------|------------|--------|
|-------------------------17\--|-------------3-5-5b7-3-|--8-------7-|-(7)----|
|------------------------------|-1-3-3b5r(3)-----------|------------|--------|


 Solo
  A5                   F5      G5                A5
  Gtr I
  |    |               | |     | |               |    |
  /    /               / /     / /               /    /

  Gtr II
                                                 ~~~~
|--------------------|-------------------------|-------------|
|--------------------|-------------------------|-8b10--------|
|-7b9==7-7-7-7-7-7-7-|-7-7-7-7r7-7b9r(7)p5-7-5-|-------------|
|--------------------|-------------------------|-------------|
|--------------------|-------------------------|-------------|
|--------------------|-------------------------|-------------|


  F5      G5
   |   |   |      |
   /   /   /      /

|----------------------------------|
|-(8)\-----------------------------|
|---------14pb16===(14)r(14)p12----|
|-------------------------------14-|
|----------------------------------|
|----------------------------------|


  A5                   F5           G5
   | |                 ||           |   |
   / /                 //           /   /

|--------------------|----------------5-------------|
|-----13b15----(13)--|--------------5---8p5---------|
|-14-----------------|--7b9-(7)-(7)---------8-7p5---|
|--------------------|----------------------------7-|
|--------------------|------------------------------|
|--------------------|------------------------------|


  F5                      E5
  |                       |    |
  /                       /    /

|---------------------------|-----------------|
|---------------------------|-----------------|
|-7p5-----------------------|-----------------|
|-----7p5-(5)-7-7p5---------|-----------------|
|-------------------7-6-5-3-|-(3)b5------(3)--|
|---------------------------|-----------------|


  A5          F5           G5               A5
  ||            |  |        |     |          | |
  //            /  /        /     /          / /

     ~~~~~~~~~~~~~~                              ~~~~~~
|---17------|-(17)---17-19-19b20-19-17----|-17--22b24=====(22)r\---|
|-----------|--------------------------20-|------------------------|
|-----------|-----------------------------|------------------------|
|-----------|-----------------------------|------------------------|
|-----------|-----------------------------|------------------------|
|-----------|-----------------------------|------------------------|
|
| Gtr III
|    ~~~~~~~~~~~~~~
|---20------|-(20)------------------------|-----19b20=====(19)r\---|
|-----------|-----------------------------|------------------------|
|-----------|--------17-19-19b21-19-17-16-|-17---------------------|
|-----------|-----------------------------|------------------------|
|-----------|-----------------------------|------------------------|
|-----------|-----------------------------|------------------------|


  F5           G5
  ||            |     |
  //            /     /

|--------------17----------17-------17-------17-|
|-----------17----20-20b22----20b22----20b22----|
|----10-/17-------------------------------------|
|-----------------------------------------------|
|-----------------------------------------------|
|-----------------------------------------------|


  A5
   |        |
   /        /

|-------17-------17-------17-------17-20b22-17-------17-20b22-17-------17--|
|-20b22----20b22----20b22----20b22-------------20b22-------------20b22-----|
|--------------------------------------------------------------------------|
|--------------------------------------------------------------------------|
|--------------------------------------------------------------------------|
|--------------------------------------------------------------------------|


  F5              G5
   |      |        |  |
   /      /        /  /

|-----------------------------|
|-20b22==20-20r20-20-20-20p17-|
|-----------------------------|
|-----------------------------|
|-----------------------------|
|-----------------------------|


  F5                                                          E5
   |                                                           |
   /                                                           /

|-------------------------------------------------------------------|
|----17h20p17----17h19p17----17h20p17----17h20p17----17h20p17-20b22-|
|-19----------19----------19----------20----------19----------------|
|-------------------------------------------------------------------|
|-------------------------------------------------------------------|
|-------------------------------------------------------------------|


                                                          Outro Chorus
    |
    /

|-------17-----------------------------------------------|-------------------|
|-(20)r----20p17----17-----------------------------------|-------------------|
|----------------20----20p19p17--------------------------|-------------------|
|-------------------------------19p17--------------------|-------------------|
|-------------------------------------19-18-17-15-15b17==|=(15)r==(15)\------|
|--------------------------------------------------------|-------------------|
|
|                                                          Gtr I
|--------------------------------------------------------|-------------------|
|--------------------------------------------------------|-------------------|
|--------------------------------------------------------|---2--2------------|
|--------------------------------------------------------|---2--2------------|
|--------------------------------------------------------|---0--0------------|
|--------------------------------------------------------|-------------------|


|-------------|-----------|-------------|
|-------------|-----------|-------------|
|-------------|-2-2-------|-------------|
|-3-3---5-5---|-2-2-------|-3-3---5-5---|
|-3-3---5-5---|-0-0-------|-3-3---5-5---|
|-1-1---3-3---|-----------|-1-1---3-3---|


 Fade Out
|-----------|-------------|------------------------|------------------|
|-----------|-------------|------------------------|------------------|
|-2-2-------|-------------|------------------------|------------------|
|-2-2-------|-3-3---5-5---|-3-----------------2----|-(2)--------------|
|-0-0-------|-3-3---5-5---|-3-----------------2----|-(2)--------------|
|-----------|-1-1---3-3---|-1-----------------0----|-(0)----0-3-0-3-0-|
|
| Gtr II
|                                                     ~~~~
|-----------|-------------|------------------------|------------------|
|-----------|-------------|------------------------|------------------|
|-----------|-------------|-7pb9r===(7)-(7)p5-7b9==|=(7)r-------------|
|-----------|-------------|------------------------|------------------|
|-----------|-------------|------------------------|------------------|
|-----------|-------------|------------------------|------------------|


|-----------------|----------------------------------|
|-----------------|----------------------------------|
|-2-2-------------|----------------------------------|
|-2-2-------------|---3----3---------5------5--------|
|-0-0-------------|---3----3---------5------5--------|
|-----------------|---1----1---------3------3--------|
|
| Gtr II
|      ~~~~~~
|-----15b17=======|=(15)r\----17-19-19b20r(19)-17-15-|
|-----------------|----------------------------------|
|-----------------|----------------------------------|
|-----------------|----------------------------------|
|-----------------|----------------------------------|
|-----------------|----------------------------------|
|
| Gtr III
|      ~~~~~~
|-----20----------|-(20)\----------------------------|
|-----------------|-----------13-15-15b17r(15)-13-12-|
|-----------------|----------------------------------|
|-----------------|----------------------------------|
|-----------------|----------------------------------|
|-----------------|----------------------------------|


|-------------------------*|
|-------------------------*|
|--2-2--------------------*|
|--2-2--------------------*|
|--0-0--------------------*|
|-------------------------*|
|
|-17---22b24===(22)r\-----*|
|-------------------------*|
|-------------------------*|
|-------------------------*|
|-------------------------*|
|-------------------------*|
|
|------15b17===(15)r\-----*|
|-13----------------------*|
|-------------------------*|
|-------------------------*|
|-------------------------*|
|-------------------------*|


Tablature Legend
----------------
 h   - hammer-on
 p   - pull-off
 b   - bend
 pb  - pre-bend
 r   - bend release (if no number after the r, then release immediately)
 /\  - slide into or out of (from/to "nowhere")
 s   - legato slide
 S   - shift slide
  - natural harmonic
[n]  - artificial harmonic
n(n) - tapped harmonic
 ~   - vibrato
 tr  - trill
 T   - tap
 TP  - trem. picking
 PM  - palm muting
\n/  - tremolo bar dip; n = amount to dip
 \n  - tremolo bar down
 n/  - tremolo bar up
/n\  - tremolo bar inverted dip
 =   - hold bend; also acts as connecting device for hammers/pulls
 <>  - volume swell (louder/softer)
 x   - on rhythm slash represents muted slash
 o   - on rhythm slash represents single note slash

Misc Legend
-----------
 |  - bar
||  - double bar
||o - repeat start
o|| - repeat end
*|  - double bar (ending)
 :  - bar (freetime)
 $  - Segno
 &  - Coda
Tempo markers -  = BPM(8/16=s8/s16), where s8 = swing 8ths, s16 = swing 16ths


***************************************************************************************
* Generated using Power Tab Editor by Brad Larsen - http://powertab.guitarnetwork.org *
***************************************************************************************

            
            
Suggest correction
Creating personal tab
Creating personal tab
You can edit any tab online and save it as your Personal.

You can edit, replace or remove any tab part or add personal notes – all changes will be seen only by you.

Personal tabs can be accessed anytime from any device, even offline.
Learn more »
Give kudos to tab author, rate the tab!
1 2 3 4 5
comments
print report bad tab
1 comment total.
0 reply
ritchie.77 224 Feb 11, 2014 04:46 AM

Scorpions - No one like you (intro + solo)
http://www.youtube.com/watch?v=YBmENP2DxLM

guest
You may want to rate the tab now too:
select rating
Wanna post a correction for this tab? Suggest correction