Oops, an error
Loading. Please wait.

Raised On Rock Tab

version 1
version 1

Whole song

Interactive

34,573 views 21 this week
1 commentread comment
1 2 3 4 5
excellent!
x 7
add to favorites
launch autoscroll
font size
0
reset
how to read this tab
guitar tuner
Autoscroll
slow
fast
+/-
esc
set tempo
stop
Help us to improve Ultimate-Guitar.com Take our survey!
×
Author
Difficulty
novice
----------------------------------------------------------------------------|
----------------------------------------------------------------------------|
--------8-8-8----6-6-6----11-11---13-13-13---8-8-8----6-6-6----11-11---13---|
--------8-8-8----6-6-6----11-11---13-13-13---8-8-8----6-6-6----11-11---13---|
--------6-6-6----4-4-4----9--9----11-11-11---6-6-6----4-4-4----9--9----11---|
----------------------------------------------------------------------------|

solo             pull                                   pull
----------------/--------------------------------------/--------------------|
---------------/-------------14-12-11-----------------/---------------------|
----11-13-11-13-------------------------13-11-13-11--13---------------------|
------------------13-11--13~------------------------------13-11-13~~11-13---|
----------------------------------------------------------------------------|
----------------------------------------------------------------------------|

                 pull                                       pull
----------------/------------------------------------------/----------------|
---------------/--------------14-12-11--------------------/-----------------|
----11-13-11-13----------------------------13-11-13-11--13------------------|
------------------13-11--13~-------------------------------13-11-13--11-13--|
----------------------------------------------------------------------------|
----------------------------------------------------------------------------|

               pull
--------------/--------------------------------------------------------------|
-------------/---------------------------------------------------------------|
-----------11----------------------------------------------------------------|
----11-13--------------------------------------------------------------------|
-----------------------------------------------------------------------------|
-----------------------------------------------------------------------------|


rhythm
-----------------------------------------------------------------------------|
-----------------------------------------------------------------------------|
--------8-8-8----6-6-6------------------------8-8-8----6-6-6-----------------|
--------8-8-8----6-6-6----4-4-4----6-6-6------8-8-8----6-6-6----4-4-4--6-6-6-|
--------6-6-6----4-4-4----4-4-4----6-6-6------6-6-6----4-4-4----4-4-4--6-6-6-|
--------------------------2-2-2----4-4-4------------------------2-2-2--4-4-4-|


----------------------------------------------------------------------------|
----------------------------------------------------------------------------|
--------8-8-8----6-6-6------------------------8-8-8----6-6-6------------6---|
--------8-8-8----6-6-6----4-4-4----6-6-6------8-8-8----6-6-6----4-4-4---6---|
--------6-6-6----4-4-4----4-4-4----6-6-6------6-6-6----4-4-4----4-4-4---4---|
--------------------------2-2-2----4-4-4------------------------2-2-2-------|


I was born...

----------------------------------------------------------------------------|
----------------------------------------------------------------------------|
---8-8-x-x-8-8---8-x-x-8-x-6-6-x-x-6-6---6-x-x-6----------------------------|
---8-8-x-x-8-8---8-x-x-8-x-6-6-x-x-6-6---6-x-x-6---6-6-x-x-6-6---6-x-x-6----|
---6-6-x-x-6-6---6-x-x-6-x-4-4-x-x-4-4---4-x-x-4---6-6-x-x-6-6---6-x-x-6----|
---------------------------------------------------4-4-x-x-4-4---4-x-x-4----|


----------------------------------------------------------------------------|
----------------------------------------------------------------------------|
---4-4-x-x-4--------------8-8-x-x-8-8---8-x-x-8-x-6-6-x-x-6-6---6-x-x-6-----|
---4-4-x-x-4--6-6-x-x-6---8-8-x-x-8-8---8-x-x-8-x-6-6-x-x-6-6---6-x-x-6-----|
---2-2-x-x-2--6-6-x-x-6---6-6-x-x-6-6---6-x-x-6-x-4-4-x-x-4-4---4-x-x-4-----|
--------------4-4-x-x-4-----------------------------------------------------|

-----------------------------------------------------------------------------|
-----------------------------------------------------------------------------|
------------------------4-4-x-x-4--------------------------------------------|
6-6-x-x-6-6---6-x-x-6---4-4-x-x-4---6--6-4-6-4-6--6-4-6-4-2------------------|
6-6-x-x-6-4---6-x-x-6---2-2-x-x-2---6--6-4-6-4-6--6-4-6-4-2------------------|
4-4-x-x-4-4---4-x-x-4---------------4--4-2-4-2-4--4-2-4-2-0------------------|

Refren

-----------------------------------------------------------------------------|
-----------------------------------------------------------------------------|
--------8-8-8----6-6-6------------------------8-8-8----6-6-6-----------------|
--------8-8-8----6-6-6----4-4-4----6-6-6------8-8-8----6-6-6----4-4-4--6-6-6-|
--------6-6-6----4-4-4----4-4-4----6-6-6------6-6-6----4-4-4----4-4-4--6-6-6-|
--------------------------2-2-2----4-4-4------------------------2-2-2--4-4-4-|


----------------------------------------------------------------------------|
----------------------------------------------------------------------------|
--------8-8-8----6-6-6------------------------8-8-8----6-6-6------------6---|
--------8-8-8----6-6-6----4-4-4----6-6-6------8-8-8----6-6-6----4-4-4---6---|
--------6-6-6----4-4-4----4-4-4----6-6-6------6-6-6----4-4-4----4-4-4---4---|
--------------------------2-2-2----4-4-4------------------------2-2-2-------|


And I was raised on rock..

----------------/--------------------------------------/--------------------|
---------------/-------------14-12-11-----------------/---------------------|
----11-13-11-13-------------------------13-11-13-11--13---------------------|
------------------13-11--13~------------------------------13-11-13~~11-13---|
----------------------------------------------------------------------------|
----------------------------------------------------------------------------|

                 pull                                       pull
----------------/------------------------------------------/----------------|
---------------/--------------14-12-11--------------------/-----------------|
----11-13-11-13----------------------------13-11-13-11--13------------------|
------------------13-11--13~-------------------------------13-11-13--11-13--|
----------------------------------------------------------------------------|
----------------------------------------------------------------------------|

               pull
--------------/--------------------------------------------------------------|
-------------/---------------------------------------------------------------|
-----------13----------------------------------------------------------------|
----11-13--------------------------------------------------------------------|
-----------------------------------------------------------------------------|
-----------------------------------------------------------------------------|


Growing up with...

----------------------------------------------------------------------------|
----------------------------------------------------------------------------|
--------11-11---13--13---13--13----11-11---13--13---13--13------------------|
--------11-11---13----13-----------11-11---13----13-------------------------|
--------9--9----11-----------------9--9----11-------------------------------|
----------------------------------------------------------------------------|
Suggest correction new What's this?
You can suggest a correction to this tab. Community and Mods will review your correction and vote to approve or reject it.
comments
print report bad tab
1 comment total.
0 reply
Anasky 191 wrote on September 4 2014, 05:08 am

Awesome tab man, really easy to play along with the song!

guest
You may want to rate the tab now too:
select rating
Please do not post tabs as comments. Select "correction" instead!