Oops, an error
Loading. Please wait.
We have an official Rock You Like A Hurricane tab made by UG professional guitarists. Check out the tab »
×
516,531 views 1 this week
34 commentsread comments
1 2 3 4 5
x 58
add to favorites
×
Save as Personal and add changes to this tab that will be seen only by you. Learn more ›
×
You can save this tab as Personal to edit and correct it or add notes. All changes will be seen only by you. Learn more »
save as personal
new!
launch autoscroll
font size
0
reset
how to read this tab
guitar tuner
backing track
0:00
0:00
Autoscroll
slow
fast
+/-
esc
set tempo
stop
Here's A little something for you kids

[Intro]

e|-----------------------|
B|-----------------------|
G|-----------------------|
D|-----------------------|
A|-----------------------|
E|-0-0-0--3-3--5-5--8--10|(x4)
 

Or you can try it the better, real way!


[Intro]

    E5    G5   A5  C5  D5
e|------------------------|
B|------------------------|
G|-9-9-9------------5--7-7|
D|-9-9-9--5-5--7-7--5--7-7|
A|-7-7-7--5-5--7-7--3--5-5|
E|--------3-3--5-5--------|(x4)
 

[Intro Solo]

e|-0-0-0-0-0-0-0-0-0-0-0-0-0-0-0-0-0-0-0-0-0-0-0-0-0-0-0-0-0-0-0-0-0|
B|-5-5-5-5-5-5-5-5-5-5-5-5-5-5-5-5-5-5-5-5-5-5-5-5-5-5-5-5-5-5-5-5-5|
G|------------------------------------------------------------------|
D|------------------------------------------------------------------|
A|------------------------------------------------------------------|
E|------------------------------------------------------------------|

e|-0--0--0--0--0--0--0--0--0--0--0--0--0--0--0--0--0--0--0--0-|
B|-12-12-12-12-12-12-12-12-12-12-12-12-12-12-12-12-12-12-12-12|
G|------------------------------------------------------------|
D|------------------------------------------------------------|
A|------------------------------------------------------------|
E|------------------------------------------------------------|
Play that the way you want to ^

 [Pre]                      [Intro Solo]
e|--------------------------|----------------15br-14h15p14p12----------15-----|
B|-11h12p11p9---------------|-------15----------------------15-15h17----15b17-|
G|-------------12p11p9------|-14b16----14b16----------------------------------|
D|---------------------12p0-|-------------------------------------------------|
A|--------------------------|-------------------------------------------------|
E|--------------------------|-------------------------------------------------|

 cont.
e|---17b-15-17-15-20b-20b-20b-20b-17-20-19-17-15-14-17-15-14|-12-----|
B|----------------------------------------------------------|---15b17|
G|----------------------------------------------------------|--------|
D|----------------------------------------------------------|--------|
A|----------------------------------------------------------|--------|
E|----------------------------------------------------------|--------|(x6)


[Solo]

e|12-15-12---------------------------------------|
B|---------15-12---------------------------------|
G|---------------15-14-12------------------------|
D|------------------------14-12------------------|
A|------------------------------14-13-12---------|
E|---------------------------------------15-12/10|


[Main Solo]

e|---------17^-17^---|---------------------------|
B|-17^-17^--------14~|-17p15-17p15-17\p15-17\p15-|do
G|-------------------|---------------------------|this
D|-------------------|---------------------------|a few
A|-------------------|---------------------------|times
E|-------------------|---------------------------|

e|------------------------------|
B|-13h16p13h16-----13h16p13-----|
G|-------------15b----------15/-|
D|------------------------------|
A|------------------------------|
E|------------------------------|

e|---------------------------------------------------1515-18bf-|
B|-----------------------------------------1515-1717-----------|
G|----------------1212-1414-1616-1414-1616---------------------|
D|------1212-1414----------------------------------------------|
A|-1414--------------------------------------------------------|
E|-------------------------------------------------------------|

                                         (x3)
e|-------------------------|----------------|------------|
B|-------------------------|-15br(15)p13----|------------|
G|-17br--15-13-15br-p13----|-15br(15)p13----|-0-2-4-5-7b-|
D|----------------------15-|-------------15-|------------|
A|-------------------------|----------------|------------|
E|-------------------------|----------------|------------|


e|--------------------------------------------------------|
B|---5-8p5---7-10p7----9-12-15p12----14-17p14----16-19p16-|
G|-/7-----/9-------/11-----------/16---------/18----------|
D|--------------------------------------------------------|
A|--------------------------------------------------------|
E|--------------------------------------------------------|

e|---------------------------------22----------------------------------|
B|-----17-20p-17----19-22p-19-22bf----22bf-22bf-r----------------------|
G|-/19---------/21--------------------------------------------------19-|
D|---------------------------------------------------------19-21-22----|
A|------------------------------------------------19-21-22-------------|
E|---------------------------------------------------------------------|

        (x3)
e|--22bf-r-|----22-20-19----20p19----19-20-19h20p19-------|
B|---------|-21----------22-------22----------------22-20-|
G|---------|----------------------------------------------|
D|---------|----------------------------------------------|
A|---------|----------------------------------------------|
E|---------|----------------------------------------------|

e|-------------------------------------------------------------|
B|-------------------------------------------------------------|
G|-1717p15--------15-17p15-17p15-------15-17-17p151715---------|
D|--------17-1517----------------17-15-----------------1717p15-|
A|-------------------------------------------------------------|
E|-------------------------------------------------------------|

e|--------------------------------|
B|-----------------------------7b-|
G|---0-2-2p0--2p0---0-2-4-5-7--7b-|    End of solo!
D|-2--------------2---------------|
A|--------------------------------|
E|--------------------------------|


That's it, I don't think I missed much. Just A little in between, It shouldn't be too much 
figure out! Your welcome and Peace out son!


**************************

| /  slide up
| \  slide down
| h  hammer-on
| p  pull-off
| ~  vibrato
| pr pre-bend
| x mute note

**************************
Suggest correction
comments
print report bad tab
34 comments total. Showing first comments.
0 reply
hepzibahbaptist 478 Aug 29, 2005 08:00 PM

great tab man good job

0 reply
stealth_penguin 10 Oct 19, 2005 02:07 PM

good job

0 reply
GuMbO7399 61 Oct 23, 2005 08:53 AM

sweet tab man how long did it take for you to make that tab man.

guest
You may want to rate the tab now too:
select rating
Wanna post a correction for this tab? Suggest correction