Oops, an error
Loading. Please wait.
We have an official Rock You Like A Hurricane tab made by UG professional guitarists. Check out the tab »
×
251,582 views 6 this week
8 commentsread comments
1 2 3 4 5
x 48
add to favorites
×
Save as Personal and add changes to this tab that will be seen only by you. Learn more ›
×
You can save this tab as Personal to edit and correct it or add notes. All changes will be seen only by you. Learn more »
launch autoscroll
font size
0
reset
how to read this tab
guitar tuner
backing track
0:00
0:00
edit
Autoscroll
slow
fast
+/-
esc
set tempo
stop
Author
I tell you in advance that it's only 90% correct.
I accept requests for every scorpions songs and others too, I also take coplaints,
compliments, corrections and blunt objects, just send it over to: Drunkirishfish@yahoo.com


[Chorus and intro Chord Progression]

    E5      G5    A5  C5 D5
e|------------------------------------------------------------------------------|
B|------------------------------------------------------------------------------|
G|-9-9-9--------------5--7-7----------------------------------------------------|
D|-9-9-9---5-5---7-7--5--7-7----------------------------------------------------|
A|-7-7-7---5-5---7-7--3--5-5----------------------------------------------------|
E|---------3-3---5-5------------------------------------------------------------|


[Intro Solo]

e|-0-0-0-0-0-0-0-0-0-0-0-0-0-0-0-0-0-0-0-0-0-0-0-0-0-0-0--0--0--0--0--0--0--0--0--0--0--0--0------|
B|-5-5-5-5-5-5-5-5-5-5-5-5-5-5-5-5-5-5-5-5-5-5-5-5-5-5-12-12-12-12-12-12-12-12-12-12-12-12-12-----|
G|------------------------------------------------------------------------------------------------|
D|------------------------------------------------------------------------------------------------|
A|------------------------------------------------------------------------------------------------|
E|------------------------------------------------------------------------------------------------|

e|-0--0--0--0--0--0--0-----------------------------------------------------------------|
B|-12-12-12-12-12-12-12-11h12p11p9-----------------------------------------------------|
G|--------------------------------12p11p9----------------------------------------------|
D|---------------------------------------12p0------------------------------------------|
A|-------------------------------------------------------------------------------------|
E|-------------------------------------------------------------------------------------|

e|----------------15-14h15p14p12----------15-------17b18r17-15-17-15------------|
B|-------15----------------------15-15p17----15b17------------------------------|
G|-14b16----14b16---------------------------------------------------------------|
D|------------------------------------------------------------------------------|
A|------------------------------------------------------------------------------|
E|------------------------------------------------------------------------------|

e|-20b22-20b22-20b22-20b22-17-20-19-17-15-19-17-15-14-17-15-14-12/20-12-------12-------12--|
B|----------------------------------------------------------------------15b17----15b17-----|
G|-----------------------------------------------------------------------------------------|
D|-----------------------------------------------------------------------------------------|
A|-----------------------------------------------------------------------------------------|
E|-----------------------------------------------------------------------------------------|

e|------12-----12-----12-----12-15-12----------------------------------------------------|
B|-15b17--15b17--15b17--15b17--------15-12-----------------------------------------------|
G|----------------------------------------15-14-12---------------------------------------|
D|------------------------------------------------14-12----------------------------------|
A|-----------------------------------------------------14-13-12--------------------------|
E|-------------------------------------------------------------15-12/10------------------|


************************************

| h  Hammer-on
| p  Pull-off
| r  Release
| b  Bend
| /  Slide up

************************************

            
            
Suggest correction
Creating personal tab
Creating personal tab
You can edit any tab online and save it as your Personal.

You can edit, replace or remove any tab part or add personal notes – all changes will be seen only by you.

Personal tabs can be accessed anytime from any device, even offline.
Learn more »
comments
print report bad tab
8 comments total. Showing first comments.
+1 reply
Curfue 121 Oct 30, 2004 08:00 PM

Great tab.

+3 reply
MCRrocks 35 Jun 28, 2005 08:00 PM

dude this tab is sweet, but here
-20b22-20b22-20b2220b22-17201917151917151417151412/20-12-------12-------12----
---------------------------------------------------------15b17----15b17-------

you shouldn't but them so close together, it's hard to read.

0 reply
dunebuggy94 10 Jan 14, 2008 01:19 PM

HOLY JESUS!!!!! xP that first solo is insane! ill just stick to that part on guitar hero LoL. ill stick to the main
chorus riff and verses.....

guest
You may want to rate the tab now too:
select rating
Wanna post a correction for this tab? Suggest correction