Oops, an error
Loading. Please wait.
We have an official Rock You Like A Hurricane tab made by UG professional guitarists. Check out the tab »
×
445,596 views 189 this week
92 commentsread comments
1 2 3 4 5
x 264
add to favorites
launch autoscroll
font size
0
reset
how to read this tab
guitar tuner
backing track
0:00
0:00
×
Best way to learn
"Rock You Like A Hurricane"
Autoscroll
slow
fast
+/-
esc
set tempo
stop
Tuning
E A D G B E
Scorpions - Rock You Like a Hurricane
Tabbed by: Matt 

[Intro]

Riff A (also Chorus)
 E|----------------------------|
 B|----------------------------|
 G|----------------------------|
 D|-9-9-9----------------------|
 A|-7-7-7--5-5--7-7--10--12-12-|
 E|--------3-3--5-5--8---10-10-|


[Solo 1] 

(over Riff A)
 E|-0-0--0-0-0--0-0--0-0--0-0-0-0-|
 B|-------------------------------|
 G|-------------------------------| x3
 D|-------------------------------|
 A|-------------------------------|
 E|-------------------------------|

 E|-0-0--0-0-0--0-3p0--------------|
 B|-------------------3p0----------|
 G|-----------------------2p0------|
 D|---------------------------2----|
 A|-----------------------------3--|
 E|--------------------------------|

 E|--------15--------15--14h15p15-12-----------15---------17b19r17p15--17-|
 B|-15b17-----15b17------------------15-15b17------15b17------------------|
 G|-----------------------------------------------------------------------|
 D|-----------------------------------------------------------------------|
 A|-----------------------------------------------------------------------|
 E|-----------------------------------------------------------------------|

 E|-22b24--22b24--22b24-22b24-22p20-19p17-20p19-17p15-19p17-15h17p15p14-17b20-|
 B|---------------------------------------------------------------------------|
 G|---------------------------------------------------------------------------|
 D|---------------------------------------------------------------------------|
 A|---------------------------------------------------------------------------|
 E|---------------------------------------------------------------------------|

 E|-------12-------12-------12-------12-------12-------12-------12-|
 B|-15b17----15b17----15b17----15b17----15b17----15b17----15b17----|
 G|----------------------------------------------------------------|
 D|----------------------------------------------------------------|
 A|----------------------------------------------------------------|
 E|----------------------------------------------------------------|

 E|-15r12-------------------------------|
 B|-------15r12-------------------------|
 G|-------------14r12-------------------|
 D|-------------------14r12-------------|
 A|-------------------------14r12-------|
 E|-------------------------------15-12-|


[Verse 1]

   P.M..............................|
 E||----------------------------------|
 B||----------------------------------|
 G||----------------------------------|
 D||-5-5-5-9-9-9-9-9--5-5-5-9-9-7-7-7-|
 A||-3-3-3-7-7-7-7-7--3-3-3-7-7-5-5-5-|
 E||----------------------------------|

   P.M..............................|
 E|----------------------------------||
 B|----------------------------------||
 G|----------------------------------|| x4
 D|-5-5-5-9-9-9-9-9--5-5-5-7-7-7-7-7-||
 A|-3-3-3-7-7-7-7-7--3-3-3-5-5-5-5-5-||
 E|----------------------------------||
  |                                   |
  |                                   |
  |Guitar 2                           |
 E|-------------------------------<12>|
 B|-----------------------------------| (this part is not on the repeats)
 G|-----------------------------<7>---|
 D|---------------------------<7>-----|
 A|-----------------------------------|
 E|-----------------------------------|


[Verse 2]

   P.M..............................|
 E||----------------------------------|
 B||----------------------------------|
 G||----------------------------------|
 D||-5-5-5-9-9-9-9-9--5-5-5-9-9-7-7-7-|
 A||-3-3-3-7-7-7-7-7--3-3-3-7-7-5-5-5-|
 E||----------------------------------|

   P.M..............................|
 E|----------------------------------||
 B|----------------------------------||
 G|----------------------------------|| x2
 D|-5-5-5-9-9-9-9-9--5-5-5-7-7-7-7-7-||
 A|-3-3-3-7-7-7-7-7--3-3-3-5-5-5-5-5-||
 E|----------------------------------||

 E||----------------------------------|
 B||----------------------------------|
 G||----------------------------------|
 D||-5----9----------5-----9---7------|
 A||-3----7----------3-----7---5------|
 E||----------------------------------|

 E|----------------------------------||
 B|----------------------------------||
 G|----------------------------------|| x2
 D|-5----9----------5-----7----------||
 A|-3----7----------3-----5----------||
 E|----------------------------------||



************************************

| h  Hammer-on
| p  Pull-off
| r  Release
| <> Harmonics
| b  Bend 

************************************
Suggest correction
comments
print report bad tab
92 comments total. Showing first comments.
+59 reply
LG87 10 Aug 08, 2004 08:00 PM

the into goes
---------------------------------------------------------
---------------------------------------------------------
---9--9--9-------------------------------5-----------7--7
---9--9--9---------5--5------7--7--------5-----------7--7
---7--7--7---------5--5------7--7--------3-----------5--5
-------------------3--3------5--5------------------------

+23 reply
fender_bullet 10 Jun 07, 2007 02:44 PM

The ending of the intro is wrong. Trust me my way sounds much better.
It should be
E|---------------------------|
B|---------------------------|
G|---------------------------|
D|-9-9-9------------*5--7-7*-|
A|-7-7-7--5-5--7-7--*3--5-5*-|
E|--------3-3--5-5-----------|

0 reply
xerox_666 10 Aug 22, 2007 03:36 AM

Non accurate

guest
You may want to rate the tab now too:
select rating
Wanna post a correction for this tab? Suggest correction