Oops, an error
Loading. Please wait.

Send Me An Angel Tab

version 1
version 1

Whole song

Interactive

119,434 views 339 this week
4 commentsread comments
1 2 3 4 5
x 12
add to favorites
launch autoscroll
font size
0
reset
how to read this tab
guitar tuner
Autoscroll
slow
fast
+/-
esc
set tempo
stop
Help us to improve Ultimate-Guitar.com Take our survey!
×
Tuning
D# G# C# F# A# D#
Tuned down one half step

I know that there are mistakes in the solo, but I think its sounds good
with the mistakes


Fig.1

     Em      Cmaj7    D      Bm7
e|---0-------0----------------------------------------------|
B|-----0-------0------3-------3-----------------------------|
G|-------0-------0------2-------2---------------------------|
D|-2----------------------4-------4-------------------------|
A|---------3--------5-------2-------------------------------|
E|----------------------------------------------------------|

     Em      Cmaj7   D
e|---0-------0----------------------------------------------|
B|-----0-------0-----------3--------------------------------|
G|-------0-------0-----2-------2----------------------------|
D|-2-----------------4---4---4---4--------------------------|
A|---------3-------5----------------------------------------|
E|----------------------------------------------------------|

  Fig.2:

     Em      Cmaj7   Em/B    G6
e|---0-------0-------0-------0------------------------------|
B|-----0-------0-------0-------0----------------------------|
G|-------0-------0-------0-------0--------------------------|
D|-2--------------------------------------------------------|
A|---------3-------2----------------------------------------|
E|-------------------------3--------------------------------|

     Em      Cmaj7   D
e|---0-------0----------------------------------------------|
B|-----0-------0-----------3--------------------------------|
G|-------0-------0-----2-------2----------------------------|
D|-2-----------------4---4---4---4--------------------------|
A|---------3-------5----------------------------------------|
E|----------------------------------------------------------|

  Fig.3:

     F#m             E
e|---------2---------------0--------------------------------|
B|-----2-------2-------0-------0----------------------------|
G|---2---2---2---2---1---0---1---1--------------------------|
D|-4---------------2----------------------------------------|
A|----------------------------------------------------------|
E|----------------------------------------------------------|

     C#m              D       E
e|----------------------------------------------------------|
B|---------2------------------------------------------------|
G|-----1-------1--------2-------4---------------------------|
D|---2---2---2---2----4---4---6---6-------------------------|
A|-4----------------5-------7-------------------------------|
E|----------------------------------------------------------|

  Fig.4:

     F#m     Dmaj7   E       C#m7
e|---2-------2----------------------------------------------|
B|-----2-------2-----5-------5------------------------------|
G|-------2-------2-----4-------4----------------------------|
D|-4-------0-------------6-------6--------------------------|
A|-----------------7-------4--------------------------------|
E|----------------------------------------------------------|

     F#m     Dmaj7   E
e|---2-------2-------------0--------------------------------|
B|-----2-------2-------0-------0----------------------------|
G|-------2-------2---1---1---1---1--------------------------|
D|-4-------0-------2----------------------------------------|
A|----------------------------------------------------------|
E|----------------------------------------------------------|

  Fig.5:

     F#m     Dmaj7   F#m/C# A6
e|---2-------2-------2-------2------------------------------|
B|-----2-------2-------2-------2----------------------------|
G|-------2-------2-------2-------2--------------------------|
D|-4-------0------------------------------------------------|
A|-----------------4-------0--------------------------------|
E|----------------------------------------------------------|

     F#m     Dmaj7   E
e|---2-------2-------------0--------------------------------|
B|-----2-------2-------0-------0----------------------------|
G|-------2-------2---1---1---1---1--------------------------|
D|-4-------0-------2----------------------------------------|
A|----------------------------------------------------------|
E|----------------------------------------------------------|

  Fig.6:

     G#m             F#
e|---------4---------------2--------------------------------|
B|-----4-------4-------2-------2----------------------------|
G|---4---4---4---4---3---3---3---2--------------------------|
D|-6---------------4----------------------------------------|
A|----------------------------------------------------------|
E|----------------------------------------------------------|

     D#m              E        F#
e|----------------------------------------------------------|
B|---------4------------0--------2--------------------------|
G|-----3-------3------1---1----3---3------------------------|
D|---4---4---4---4--2--------4------------------------------|
A|-6--------------------------------------------------------|
E|----------------------------------------------------------|

--------------------------------------------------------------------------
Theres an keyboard through the song.It plays the normal chords.
Gtr.1=acoustic guitar(all Rhytmn-figures)
Gtr.2=electric guitar[clean](all powerchords[w/distortion] so
the                              chord-symbols, fills, solos)


[Intro w/gtr.1:]
Fig.1 (4x)


[Verse I w/gtr.1:]
Fig.2 (4x)

The wise man said: "just walk this way
                        E5 (x688xx)
To the dawn of the light
The wind will blow into your face
As the years pass you by
                                E5
Hear this voice from deep inside
It's the call of your heart
                                 E5
Close your eyes and you will find
A passage out of the dark"


[Chorus] w/gtr.1:
Fig.3 (2x)

          E5
Here I am           will you send me an angel
         (here I am)                       G----------/11---
         E5
Here I am           in the land of the morning star
         (here I am)


[Interlude] w/gtr.1:
Fig.4(2x)

e|------------|
B|------------|
G|-9----/11---|
D|---11-------|
A|------------|
E|------------|


[Verse II] w/gtr.1:
Fig.5 (2x)

The wise man said: "Just find your place
                      G------10b11-------
In the eye of the storm
                            F#5 (x,9,11,11,x,x)
Seek the roses along the way
Just beware of the thorns"

[Chorus]
Fig.6(2x)

G#5      F#5    D#5          E          F#
Here I am           will you send me an angel
         (here I am)                             (solo starting here)
G#5      F#5    D#5          E          F#     (e5)
Here I am           in the land of the morning staaa aaa aa aa aa aar
         (here I am)

[Solo]

Fig.1(2x)
e|-----------------------------------------------------------------|
B|------12--13--15--12--10--12--13--12--15b17--15b17--15b16r17-----|
G|-----------------------------------------------------------------|
D|-----------------------------------------------------------------|
A|-----------------------------------------------------------------|
E|--/12------------------------------------------------------------|

e|----------------------------------------------------|
B|--15----------12--13--15--13--12--10--12--13--12----|
G|------14--------------------------------------------|
D|----------14----------------------------------------|
A|----------------------------------------------------|
E|----------------------------------------------------|

e|--22b24--22b24--22b24r22--20--19--20--17--20--19-fade-out-----|
B|--------------------------------------------------------------|
G|--------------------------------------------------------------|
D|--------------------------------------------------------------|
A|--------------------------------------------------------------|
E|--------------------------------------------------------------|


[Verse III] w/gtr.1:
Fig.2 (4x)

The wise man said: "Just raise yor hand
And reach out for the spell
                              G---9--7--4(1/4 bend)--7--9--
e|Find the door to the promised land
B|Just believe in yourself
G|Hear this voice from deep inside
D|It's the call of your heart
A|Close your eyes and you will find
E|                           G---9h12h14b15--12p9--
The way out of the dark"


[Chorus] w/gtr.1(Repeat 4x and fade out):
Fig.3(8x)

F#5    E5        C#5         D5         E5
Here I am           will you send me an angel
         (here I am)
G#5      F#5    D#5          E          F#
Here I am           in the land of the morning star
         (here I am)


[Outro]-Solo after the fourth time:

e|------------------------------------------------|
B|--14----------17p15p14--------------------------|
G|------------------------------------------------|
D|------------------------------------------------|
A|------------------------------------------------|
E|------------------------------------------------|

e|------------------------------------------------|
B|--14----------17p15p14--------------------------|
G|------------------------------------------------|
D|------------------------------------------------|
A|------------------------------------------------|
E|------------------------------------------------|

                            w/bar................................
e|--------------------------------------------------------------|
B|-17b19-17b19-17----17b19--------------------------------------|
G|----------------18--------------------------------------------|
D|--------------------------------------------------------------|
A|--------------------------------------------------------------|
E|--------------------------------------------------------------|

                                    .......
e|-----------------------20b22------------19--16--17-16---------|
B|-21b22----------19-22---------------------------------19------|
G|---------------------------------------------------------18---|
D|--------------------------------------------------------------|
A|--------------------------------------------------------------|
E|--------------------------------------------------------------|

                                      ............................
e|--------------------------12----------------------20b21---------|
B|-17-19-----------------------14b16---------17-------------------|
G|----------------------------------------------------------------|
D|----------------------------------------------------------------|
A|----------------------------------------------------------------|
E|----------------------------------------------------------------|

    .....
e|-----17-16-17--17-16------------------------------------------|
B|---------------------19---------------------------------------|
G|--------------------------------------------------------------|
D|--------------------------------------------------------------|
A|--------------------------------------------------------------|
E|--------------------------------------------------------------|


************************************

| h  Hammer-on
| p  Pull-off
| r  Release
| b  Bend
| /  Slide up

************************************
Suggest correction
comments
print report bad tab
4 comments total. Showing first comments.
0 reply
szekelymihai 414 Jul 26, 2007 05:57 AM

neah its not good the verse part is not good and i didnt check out the rest

-1 reply
szekelymihai 414 Jul 26, 2007 05:58 AM

sorry i recalled the song it looks decent now

0 reply
burninginferno 41 Nov 14, 2008 11:44 PM

whats the tuning??

guest
You may want to rate the tab now too:
select rating
Wanna post a correction for this tab? Suggest correction