Oops, an error
Loading. Please wait.

Steamrock Fever tab

version 3
version 3

Whole song

Interactive

58 views 1 this week
no commentswrite comment
1 2 3 4 5
3 more votes to show rating
add to favorites
×
Save as Personal and add changes to this tab that will be seen only by you. Learn more ›
×
You can save this tab as Personal to edit and correct it or add notes. All changes will be seen only by you. Learn more »
launch autoscroll
font size
0
reset
how to read this tab
guitar tuner
edit
Autoscroll
slow
fast
+/-
esc
set tempo
stop
Author
Difficulty
STEAMROCK FEVER

As recorded by Scorpions
(From the 1978 Album TAKEN BY FORCE)

Words and Music by Klaus Meine & Rudolf Schenker

Transcribed by Slowhand


Gtr I (E A D G B E) - 'Rudolf Schenker - Electric Guitar'
Gtr II (E A D G B E) - 'Uli Jon Roth - Electric Guitar'


 Intro
  Q=132
  C5                        Db5           C5Db5 C5
 4/4
  Gtr I (El. Gtr. w/ dist.)
  |-3-| |-3-| |-3-| |-3-|   |-3-| |-3-| |-3-|   |-3-| |-3-| |-3-| |-3-|
  E E E E E E E E E E E E   E E E E E E Q Q Q   E E E E E E E E E E E E
|-------------------------|-------------------|--------------------------|
|-------------------------|-------------------|--------------------------|
|-5-5-5-5-5-5-5-5-5-5-5-5-|-6-6-6-6-6-6-6-5-6-|-5-5-5-5-5-5-5-5-5-5-5-5--|
|-5-5-5-5-5-5-5-5-5-5-5-5-|-6-6-6-6-6-6-6-5-6-|-5-5-5-5-5-5-5-5-5-5-5-5--|
|-3-3-3-3-3-3-3-3-3-3-3-3-|-4-4-4-4-4-4-4-3-4-|-3-3-3-3-3-3-3-3-3-3-3-3--|
|-------------------------|-------------------|--------------------------|


                       1st - 3rd Verses
                    $
  Db5           C5Db5   C5                        Db5
  |-3-| |-3-| |-3-|     |-3-| |-3-| |-3-| |-3-|   |-3-| |-3-| |-3-| |-3-|
  E E E E E E Q Q Q     E E E E E E E E E E E E   E E E E E E E E E E E E
|-------------------||--------------------------|--------------------------|
|-------------------||o-------------------------|--------------------------|
|-6-6-6-6-6-6-6-5-6-||--5-5-5-5-5-5-5-5-5-5-5-5-|-6-6-6-6-6-6-6-6-6-6-6-6--|
|-6-6-6-6-6-6-6-5-6-||--5-5-5-5-5-5-5-5-5-5-5-5-|-6-6-6-6-6-6-6-6-6-6-6-6--|
|-4-4-4-4-4-4-4-3-4-||o-3-3-3-3-3-3-3-3-3-3-3-3-|-4-4-4-4-4-4-4-4-4-4-4-4--|
|-------------------||--------------------------|--------------------------|


  C5                        Db5                       C5
  |-3-| |-3-| |-3-| |-3-|   |-3-| |-3-| |-3-| |-3-|   |-3-| |-3-| |-3-| |-3-|
  E E E E E E E E E E E E   E E E E E E E E E E E E   E E E E E E E E E E E E
|-------------------------|-------------------------|-------------------------|
|-------------------------|-------------------------|-------------------------|
|-5-5-5-5-5-5-5-5-5-5-5-5-|-6-6-6-6-6-6-6-6-6-6-6-6-|-5-5-5-5-5-5-5-5-5-5-5-5-|
|-5-5-5-5-5-5-5-5-5-5-5-5-|-6-6-6-6-6-6-6-6-6-6-6-6-|-5-5-5-5-5-5-5-5-5-5-5-5-|
|-3-3-3-3-3-3-3-3-3-3-3-3-|-4-4-4-4-4-4-4-4-4-4-4-4-|-3-3-3-3-3-3-3-3-3-3-3-3-|
|-------------------------|-------------------------|-------------------------|


  Db5                       C5    Db5   C5    Db5     C5    Db5   C5    Db5
  |-3-| |-3-| |-3-| |-3-|   |-3-| |-3-| |-3-| |-3-|   |-3-| |-3-| |-3-| |-3-|
  E E E E E E E E E E E E   E E E E E E E E E E E E   E E E E E E E E E E E E
|-------------------------|-------------------------|-------------------------|
|-------------------------|-------------------------|-------------------------|
|-6-6-6-6-6-6-6-6-6-6-6-6-|-5-5-5-6-6-6-5-5-5-6-6-6-|-5-5-5-6-6-6-5-5-5-6-6-6-|
|-6-6-6-6-6-6-6-6-6-6-6-6-|-5-5-5-6-6-6-5-5-5-6-6-6-|-5-5-5-6-6-6-5-5-5-6-6-6-|
|-4-4-4-4-4-4-4-4-4-4-4-4-|-3-3-3-4-4-4-3-3-3-4-4-4-|-3-3-3-4-4-4-3-3-3-4-4-4-|
|-------------------------|-------------------------|-------------------------|


  C5                        Db5                       C5
  |-3-| |-3-| |-3-| |-3-|   |-3-| |-3-| |-3-| |-3-|   |-3-| |-3-| |-3-| |-3-|
  E E E E E E E E E E E E   E E E E E E E E E E E E   E E E E E E E E E E E E
|-------------------------|-------------------------|-------------------------|
|-------------------------|-------------------------|-------------------------|
|-5-5-5-5-5-5-5-5-5-5-5-5-|-6-6-6-6-6-6-6-6-6-6-6-6-|-5-5-5-5-5-5-5-5-5-5-5-5-|
|-5-5-5-5-5-5-5-5-5-5-5-5-|-6-6-6-6-6-6-6-6-6-6-6-6-|-5-5-5-5-5-5-5-5-5-5-5-5-|
|-3-3-3-3-3-3-3-3-3-3-3-3-|-4-4-4-4-4-4-4-4-4-4-4-4-|-3-3-3-3-3-3-3-3-3-3-3-3-|
|-------------------------|-------------------------|-------------------------|


  Db5                       C5                        Db5
  |-3-| |-3-| |-3-| |-3-|   |-3-| |-3-| |-3-| |-3-|   |-3-| |-3-| |-3-| |-3-|
  E E E E E E E E E E E E   E E E E E E E E E E E E   E E E E E E E E E E E E
|-------------------------|-------------------------|-------------------------|
|-------------------------|-------------------------|-------------------------|
|-6-6-6-6-6-6-6-6-6-6-6-6-|-5-5-5-5-5-5-5-5-5-5-5-5-|-6-6-6-6-6-6-6-6-6-6-6-6-|
|-6-6-6-6-6-6-6-6-6-6-6-6-|-5-5-5-5-5-5-5-5-5-5-5-5-|-6-6-6-6-6-6-6-6-6-6-6-6-|
|-4-4-4-4-4-4-4-4-4-4-4-4-|-3-3-3-3-3-3-3-3-3-3-3-3-|-4-4-4-4-4-4-4-4-4-4-4-4-|
|-------------------------|-------------------------|-------------------------|


  C5                        Ab5   Eb5   B5    F5
  |-3-| |-3-| |-3-| |-3-|   |-3-| |-3-| |-3-|  |--3--|
  E E E E E E E E E E E E   E E E E E E E E E  E  E  E
|-------------------------|----------------------------|
|-------------------------|----------------------------|
|-5-5-5-5-5-5-5-5-5-5-5-5-|-------8-8-8-------10-10-10-|
|-5-5-5-5-5-5-5-5-5-5-5-5-|-6-6-6-8-8-8-9-9-9-10-10-10-|
|-3-3-3-3-3-3-3-3-3-3-3-3-|-6-6-6-6-6-6-9-9-9--8--8--8-|
|-------------------------|-4-4-4-------7-7-7----------|
|
| Gtr II (El. Gtr. w/ dist.)
|                           |-3-| |-3-| |-3-|  |--3--|
| W                         E E E E E E E E E  E  E  E
|-------------------------|----------------------------|
|-------------------------|----------------------------|
|-------------------------|----------------------------|
|-------------------------|----------------------------|
|-------------------------|-------6-6-6--------8--8--8-|
|-------------------------|-4-4-4-------7-7-7----------|


  D5       Ab5      E5       A5
   |--3--|  |--3--|  |--3--|  |--3--|
   E  E  E  E  E  E  E  E  E  E  E  E
|-------------------------------------|
|-------------------------------------|
|----------13-13-13----------14-14-14-|
|-12-12-12-13-13-13-14-14-14-14-14-14-|
|-12-12-12-11-11-11-14-14-14-12-12-12-|
|-10-10-10----------12-12-12----------|
|
|  |--3--|  |--3--|  |--3--|  |--3--|
|  E  E  E  E  E  E  E  E  E  E  E  E
|-------------------------------------|
|-------------------------------------|
|-------------------------------------|
|-------------------------------------|
|----------11-11-11----------12-12-12-|
|-10-10-10----------12-12-12----------|


                               Chorus
To Coda
  C5          E5                Bb5
                                |-3-| |-3-| |-3-| |-3-|
   W          W                 E E E E E E E E E E E E
|-----------|------------||-||---------------------------|
|-----------|-----------o||-||o--------------------------|
|-17s=======|=9\---------||-||--3-3-3-3-3-3-3-3-3-3-3-3--|
|-17s=======|=9\---------||-||--3-3-3-3-3-3-3-3-3-3-3-3--|
|-15s=======|=7\--------o||-||o-1-1-1-1-1-1-1-1-1-1-1-1--|
|-----------|------------||-||---------------------------|
|
|  ~~~~~~~~~~~~~~
|  W          W                 W
|-----------|------------||-||---------------------------|
|-----------|-----------o||-||o--------------------------|
|-----------|------------||-||---------------------------|
|-----------|------------||-||---------------------------|
|-15s=======|=7\--------o||-||o--------------------------|
|-----------|------------||-||---------------------------|


  F5
  |-3--|  |-3--|   |-3--| |-3-|
  E E  E  E E  E   E  E E E E E
|-------------------------------|
|-------------------------------|
|-------------------------------|
|-3-3--3--3-3--3---3--3-3-3-3-3-|
|-3-3--3--3-3--3---3--3-3-3-3-3-|
|-1-1--1--1-1--1---1--1-1-1-1-1-|
|
| |-3--|  |-3--|
| Q    E  Q    E  +H
|-------------------------------|
|-----18s15s==18-(18)-----------|
|-------------------------------|
|-------------------------------|
|-------------------------------|
|-------------------------------|


  G5                        Eb5         F5
  |-3-| |-3-| |-3-| |-3-|   |-3-| |-3-|  |--3--|  |--3--|
  E E E E E E E E E E E E   E E E E E E  E  E  E  E  E  E
|-------------------------|-------------------------------|
|-------------------------|-------------------------------|
|-------------------------|-8-8-8-8-8-8-10-10-10-10-10-10-|
|-5-5-5-5-5-5-5-5-5-5-5-5-|-8-8-8-8-8-8-10-10-10-10-10-10-|
|-5-5-5-5-5-5-5-5-5-5-5-5-|-6-6-6-6-6-6--8--8--8--8--8--8-|
|-3-3-3-3-3-3-3-3-3-3-3-3-|-------------------------------|
|
|                                        |--3--|
| W                         H            Q     E  Q
|-------------------------|-------------18s===15s18-------|
|-------------------------|-------------------------------|
|-------------------------|-------------------------------|
|-------------------------|-------------------------------|
|-------------------------|-------------------------------|
|-------------------------|-------------------------------|


  Bb5
  |-3-| |-3-| |-3-| |-3-|
  E E E E E E E E E E E E
|-------------------------|
|-------------------------|
|-3-3-3-3-3-3-3-3-3-3-3-3-|
|-3-3-3-3-3-3-3-3-3-3-3-3-|
|-1-1-1-1-1-1-1-1-1-1-1-1-|
|-------------------------|
|
| W
|-------------------------|
|-------------------------|
|-------------------------|
|-------------------------|
|-------------------------|
|-------------------------|


  F5                              G5
  |-3--|  |-3--|   |-3--| |-3-|   |-3-| |-3-| |-3-| |-3-|
  E E  E  E E  E   E  E E E E E   E E E E E E E E E E E E
|-------------------------------|-------------------------|
|-------------------------------|-------------------------|
|-------------------------------|-------------------------|
|-3-3--3--3-3--3---3--3-3-3-3-3-|-5-5-5-5-5-5-5-5-5-5-5-5-|
|-3-3--3--3-3--3---3--3-3-3-3-3-|-5-5-5-5-5-5-5-5-5-5-5-5-|
|-1-1--1--1-1--1---1--1-1-1-1-1-|-3-3-3-3-3-3-3-3-3-3-3-3-|
|
| |-3--|  |-3--|
| Q    E  Q    E  +H              W
|-------------------------------|-------------------------|
|-----18s15s==18-(18)-----------|-------------------------|
|-------------------------------|-------------------------|
|-------------------------------|-------------------------|
|-------------------------------|-------------------------|
|-------------------------------|-------------------------|


  1.                           2.
  Eb5     D5    C#5 C5  B5      Eb5   Ab5   F5       B5
   |-3--| |-3-| |-3-| |-3-|     |-3-| |-3-|  |--3--| |-3-|
   E  E E E E E E E E E E E     E E E E E E  E  E  E E E E
|----------------------------||----------------------------|
|---------------------------o||----------------------------|
|--8--8-8-7-7-7-6-6-5-5-4-4--||-8-8-8-------10-10-10-------|
|--8--8-8-7-7-7-6-6-5-5-4-4--||-8-8-8-6-6-6-10-10-10-9-9-9-|
|--6--6-6-5-5-5-4-4-3-3-2-2-o||-6-6-6-6-6-6--8--8--8-9-9-9-|
|----------------------------||-------4-4-4----------7-7-7-|
|
|                               |-3-| |-3-|  |--3--| |-3-|
|  W                            E E E E E E  E  E  E E E E
|-20\------------------------||----------------------------|
|-20\-----------------------o||----------------------------|
|----------------------------||----------------------------|
|----------------------------||----------------------------|
|---------------------------o||-6-6-6--------8--8--8-------|
|----------------------------||-------4-4-4----------7-7-7-|


  G5       Db5      A5       Eb5
   |--3--|  |--3--|  |--3--|  |--3--|
   E  E  E  E  E  E  E  E  E  E  E  E
|-------------------------------------|
|-------------------------------------|
|-12-12-12----------14-14-14----------|
|-12-12-12-11-11-11-14-14-14-13-13-13-|
|-10-10-10-11-11-11-12-12-12-13-13-13-|
|-----------9--9--9----------11-11-11-|
|
|  |--3--|  |--3--|  |--3--|  |--3--|
|  E  E  E  E  E  E  E  E  E  E  E  E
|-------------------------------------|
|-------------------------------------|
|-------------------------------------|
|-------------------------------------|
|-10-10-10----------12-12-12----------|
|-----------9--9--9----------11-11-11-|


     D.S. al Coda       &
  C5          E5           E5
   W          W            W
|-----------|-----------||-------||
|-----------|-----------||-------||
|-17s=======|=9\--------||-9\----||
|-17s=======|=9\--------||-9\----||
|-15s=======|=7\--------||-7\----||
|-----------|-----------||-------||
|
|  ~~~~~~~~~~~~~~~~~~~~~~~~~~~
|  W          W            W
|-----------|-----------||-------||
|-----------|-----------||-------||
|-----------|-----------||-------||
|-----------|-----------||-------||
|-15s=======|=7\--------||-7\----||
|-----------|-----------||-------||


   Out-Chorus
    Bb5
    |-3-| |-3-| |-3-| |-3-|
    E E E E E E E E E E E E
||--------------------------|
||o-------------------------|
||--3-3-3-3-3-3-3-3-3-3-3-3-|
||--3-3-3-3-3-3-3-3-3-3-3-3-|
||o-1-1-1-1-1-1-1-1-1-1-1-1-|
||--------------------------|
|
|   W
||--------------------------|
||o-------------------------|
||--------------------------|
||--------------------------|
||o-------------------------|
||--------------------------|


  F5                              G5
  |-3--|  |-3--|   |-3--| |-3-|   |-3-| |-3-| |-3-| |-3-|
  E E  E  E E  E   E  E E E E E   E E E E E E E E E E E E
|-------------------------------|--------------------------|
|-------------------------------|--------------------------|
|-------------------------------|--------------------------|
|-3-3--3--3-3--3---3--3-3-3-3-3-|-5-5-5-5-5-5-5-5-5-5-5-5--|
|-3-3--3--3-3--3---3--3-3-3-3-3-|-5-5-5-5-5-5-5-5-5-5-5-5--|
|-1-1--1--1-1--1---1--1-1-1-1-1-|-3-3-3-3-3-3-3-3-3-3-3-3--|
|
| |-3--|  |-3--|
| Q    E  Q    E  +H              W
|-------------------------------|--------------------------|
|-----18s15s==18-(18)-----------|--------------------------|
|-------------------------------|--------------------------|
|-------------------------------|--------------------------|
|-------------------------------|--------------------------|
|-------------------------------|--------------------------|


  Eb5         F5
  |-3-| |-3-|  |--3--|  |--3--|
  E E E E E E  E  E  E  E  E  E
|-------------------------------|
|-------------------------------|
|-8-8-8-8-8-8-10-10-10-10-10-10-|
|-8-8-8-8-8-8-10-10-10-10-10-10-|
|-6-6-6-6-6-6--8--8--8--8--8--8-|
|-------------------------------|
|
|              |--3--|
| H            Q     E  Q
|-------------18s===15s18-------|
|-------------------------------|
|-------------------------------|
|-------------------------------|
|-------------------------------|
|-------------------------------|


  Bb5                       F5
  |-3-| |-3-| |-3-| |-3-|   |-3--|  |-3--|   |-3--| |-3-|
  E E E E E E E E E E E E   E E  E  E E  E   E  E E E E E
|-------------------------|-------------------------------|
|-------------------------|-------------------------------|
|-3-3-3-3-3-3-3-3-3-3-3-3-|-------------------------------|
|-3-3-3-3-3-3-3-3-3-3-3-3-|-3-3--3--3-3--3---3--3-3-3-3-3-|
|-1-1-1-1-1-1-1-1-1-1-1-1-|-3-3--3--3-3--3---3--3-3-3-3-3-|
|-------------------------|-1-1--1--1-1--1---1--1-1-1-1-1-|
|
|                           |-3--|  |-3--|
| W                         Q    E  Q    E  +H
|-------------------------|-------------------------------|
|-------------------------|-----18s15s==18-(18)-----------|
|-------------------------|-------------------------------|
|-------------------------|-------------------------------|
|-------------------------|-------------------------------|
|-------------------------|-------------------------------|


  G5
  |-3-| |-3-| |-3-| |-3-|
  E E E E E E E E E E E E
|-------------------------|
|-------------------------|
|-------------------------|
|-5-5-5-5-5-5-5-5-5-5-5-5-|
|-5-5-5-5-5-5-5-5-5-5-5-5-|
|-3-3-3-3-3-3-3-3-3-3-3-3-|
|
| W
|-------------------------|
|-------------------------|
|-------------------------|
|-------------------------|
|-------------------------|
|-------------------------|


  Eb5     D5    Db5 C5  B5    Bb5
   |-3--| |-3-| |-3-| |-3-|   |-3-| |-3-| |-3-| |-3-|
   E  E E E E E E E E E E E   E E E E E E E E E E E E
|---------------------------|-------------------------|
|---------------------------|-------------------------|
|--8--8-8-7-7-7-6-6-5-5-4-4-|-3-3-3-3-3-3-3-3-3-3-3-3-|
|--8--8-8-7-7-7-6-6-5-5-4-4-|-3-3-3-3-3-3-3-3-3-3-3-3-|
|--6--6-6-5-5-5-4-4-3-3-2-2-|-1-1-1-1-1-1-1-1-1-1-1-1-|
|---------------------------|-------------------------|
|
|  W                          W
|-20\-----------------------|-------------------------|
|-20\-----------------------|-------------------------|
|---------------------------|-------------------------|
|---------------------------|-------------------------|
|---------------------------|-------------------------|
|---------------------------|-------------------------|


  F5
  |-3--|  |-3--|   |-3--| |-3-|
  E E  E  E E  E   E  E E E E E
|-------------------------------|
|-------------------------------|
|-------------------------------|
|-3-3--3--3-3--3---3--3-3-3-3-3-|
|-3-3--3--3-3--3---3--3-3-3-3-3-|
|-1-1--1--1-1--1---1--1-1-1-1-1-|
|
| |-3--|  |-3--|
| Q    E  Q    E  +H
|-------------------------------|
|-----18s15s==18-(18)-----------|
|-------------------------------|
|-------------------------------|
|-------------------------------|
|-------------------------------|


  G5                        Eb5         F5
  |-3-| |-3-| |-3-| |-3-|   |-3-| |-3-|  |--3--|  |--3--|
  E E E E E E E E E E E E   E E E E E E  E  E  E  E  E  E
|-------------------------|-------------------------------|
|-------------------------|-------------------------------|
|-------------------------|-8-8-8-8-8-8-10-10-10-10-10-10-|
|-5-5-5-5-5-5-5-5-5-5-5-5-|-8-8-8-8-8-8-10-10-10-10-10-10-|
|-5-5-5-5-5-5-5-5-5-5-5-5-|-6-6-6-6-6-6--8--8--8--8--8--8-|
|-3-3-3-3-3-3-3-3-3-3-3-3-|-------------------------------|
|
|                                        |--3--|
| W                         H            Q     E  Q
|-------------------------|-------------18s===15s18-------|
|-------------------------|-------------------------------|
|-------------------------|-------------------------------|
|-------------------------|-------------------------------|
|-------------------------|-------------------------------|
|-------------------------|-------------------------------|


  Bb5                       F5
  |-3-| |-3-| |-3-| |-3-|   |-3--|  |-3--|   |-3--| |-3-|
  E E E E E E E E E E E E   E E  E  E E  E   E  E E E E E
|-------------------------|-------------------------------|
|-------------------------|-------------------------------|
|-3-3-3-3-3-3-3-3-3-3-3-3-|-------------------------------|
|-3-3-3-3-3-3-3-3-3-3-3-3-|-3-3--3--3-3--3---3--3-3-3-3-3-|
|-1-1-1-1-1-1-1-1-1-1-1-1-|-3-3--3--3-3--3---3--3-3-3-3-3-|
|-------------------------|-1-1--1--1-1--1---1--1-1-1-1-1-|
|
|                           |-3--|  |-3--|
| W                         Q    E  Q    E  +H
|-------------------------|-------------------------------|
|-------------------------|-----18s15s==18-(18)-----------|
|-------------------------|-------------------------------|
|-------------------------|-------------------------------|
|-------------------------|-------------------------------|
|-------------------------|-------------------------------|


  G5                        Ab5   Eb5   B5    F5
  |-3-| |-3-| |-3-| |-3-|   |-3-| |-3-| |-3-|  |--3--|
  E E E E E E E E E E E E   E E E E E E E E E  E  E  E
|-------------------------|-------------------------------||
|-------------------------|------------------------------o||
|-------------------------|-------8-8-8-------10-10-10----||
|-5-5-5-5-5-5-5-5-5-5-5-5-|-6-6-6-8-8-8-9-9-9-10-10-10----||
|-5-5-5-5-5-5-5-5-5-5-5-5-|-6-6-6-6-6-6-9-9-9--8--8--8---o||
|-3-3-3-3-3-3-3-3-3-3-3-3-|-4-4-4-------7-7-7-------------||
|
|                           |-3-| |-3-| |-3-|  |--3--|
| W                         E E E E E E E E E  E  E  E
|-------------------------|-------------------------------||
|-------------------------|------------------------------o||
|-------------------------|-------------------------------||
|-------------------------|-------------------------------||
|-------------------------|-------6-6-6--------8--8--8---o||
|-------------------------|-4-4-4-------7-7-7-------------||


Duration Legend
---------------
W - whole; H - half; Q - quarter; E - 8th; S - 16th; T - 32nd; X - 64th; a - acciaccatura
+ - note tied to previous; . - note dotted; .. - note double dotted
Uncapitalized letters represent notes that are staccato (1/2 duration)
Irregular groupings are notated above the duration line
Duration letters will always appear directly above the note/fret number it represents the
duration for.  Duration letters with no fret number below them represent rests.  Multi-
bar rests are notated in the form Wxn, where n is the number of bars to rest for.  Low
melody durations appear below the staff

Tablature Legend
----------------
 h   - hammer-on
 p   - pull-off
 b   - bend
 pb  - pre-bend
 r   - bend release (if no number after the r, then release immediately)
 /\  - slide into or out of (from/to "nowhere")
 s   - legato slide
 S   - shift slide
  - natural harmonic
[n]  - artificial harmonic
n(n) - tapped harmonic
 ~   - vibrato
 tr  - trill
 T   - tap
 TP  - trem. picking
 PM  - palm muting
\n/  - tremolo bar dip; n = amount to dip
 \n  - tremolo bar down
 n/  - tremolo bar up
/n\  - tremolo bar inverted dip
 =   - hold bend; also acts as connecting device for hammers/pulls
 <>  - volume swell (louder/softer)
 x   - on rhythm slash represents muted slash
 o   - on rhythm slash represents single note slash

Misc Legend
-----------
 |  - bar
||  - double bar
||o - repeat start
o|| - repeat end
*|  - double bar (ending)
 :  - bar (freetime)
 $  - Segno
 &  - Coda
Tempo markers -  = BPM(8/16=s8/s16), where s8 = swing 8ths, s16 = swing 16ths







We'd like to introduce tonight
The kings of a brand new style
They're hungry to play
We'd like to introduce tonight
The new heavy steamrock style
They're ready to play
All right, how do you feel tonight
Get out to see them write
The name of their band
(Steamrock band, steamrock band)
Steam bright, work has a beat tonight
Get out to see them fry
And they will begin
Here they are
Steamrock fever thrilling rock believers
Steamrock fever in L. A.
Steamrock fever thrilling rock believers
Steamrock fever in L. A.
All right, how do you feel tonight
Get out to see them write
The name of their band
(Steamrock band, steamrock band)
Steam bright, work has a beat tonight
Get out to see them fry
And they will begin
Here they are
Steamrock fever thrilling rock believers
Steamrock fever in L. A.
Steamrock fever thrilling rock believers
Steamrock fever in L. A.
Suggest correction
Creating personal tab
Creating personal tab
You can edit any tab online and save it as your Personal.

You can edit, replace or remove any tab part or add personal notes – all changes will be seen only by you.

Personal tabs can be accessed anytime from any device, even offline.
Learn more »
Give kudos to tab author, rate the tab!
1 2 3 4 5
comments
print report bad tab
guest
You may want to rate the tab now too:
select rating
Wanna post a correction for this tab? Suggest correction