Oops, an error
Loading. Please wait.
We have Chord Pro version of Still Loving You.
It's the closest thing you can get to the original song and it has interactive parts. Check out the tab »
×
28,385 views 30 this week
2 commentsread comments
1 2 3 4 5
x 9
add to favorites
×
Save as Personal and add changes to this tab that will be seen only by you. Learn more ›
×
You can save this tab as Personal to edit and correct it or add notes. All changes will be seen only by you. Learn more »
launch autoscroll
font size
0
reset
guitar tuner
backing track
0:00
0:00
edit
Autoscroll
slow
fast
+/-
esc
set tempo
stop
Author
Difficulty
intermediate
Scorpions - Still Loving You - Bass
Standard Tuning

[Verse] (Fight...)
G ------------|------------|------------|------------|
D ------------|------------|------------|------------|
A ------------|------------|------------|------------|
E -4--------4-|-4----------|-4--------4-|-4----------|

G ------------|------------|------------|------------|
D ------------|------------|------------|------------|
A ------------|------------|-6--------6-|-6----------|
E -6--------6-|-6----------|------------|-------7-6--|
                         X 2

[Chorus] (If wed go again...)
G ------------|------------|------------|------------|
D ------------|------------|------------|------------|
A ------------|------------|-2--------2-|------------|
E -4--------4-|-0--------0-|------------|-2-----0-2--|

G ------------|------------|------------|------------|
D ------------|------------|------------|------------|
A ------------|------------|-2--------2-|------------|
E -4--------4-|-0--------0-|------------|-2--2-0-2-3-|

G ------------|------------|------------|------------|
D ------------|------------|------------|------------|
A ------------|-4--------4-|-6------6-4-|------------|
E -4--------4-|------------|------------|-4----2-----|

G ------------|------------|------------|------------|
D ------------|------------|------------|------------|
A ------------|------------|------------|------------|
E -0--------0-|-0--------0-|-2--------2-|-2----------|

[Verse] (Try...)
G ------------|------------|------------|------------|
D ------------|------------|------------|------------|
A ------------|------------|------------|------------|
E -4--------4-|-4----------|-4--------4-|-4----------|

G ------------|------------|------------|------------|
D ------------|------------|------------|------------|
A ------------|------------|-6--------6-|-6----------|
E -6--------6-|-6----------|------------|-------7-6--|

G ------------|------------|------------|------------|
D ------------|------------|------------|------------|
A ------------|------------|------------|------------|
E -4--------4-|-4------0-0-|-4--------4-|-4-----2----|

G ------------|------------|------------|------------|
D ------------|------------|------------|------------|
A ------------|------------|-6--------6-|-6----------|
E -6----------|-10\6-------|------------|-------7-6--|

[Chorus] (If wed...) + Bridge(Yes Ive hurt...) + Outro(Im still...)
G ------------|------------|------------|------------|
D ------------|------------|------------|------------|
A ------------|------------|-2--------2-|------------|
E -4--------4-|-0--------0-|------------|-2-----0-2--|

G ------------|------------|------------|------------|
D ------------|------------|------------|------------|
A ------------|------------|-2--------2-|------------|
E -4--------4-|-0--------0-|------------|-2--2-0-2-3-|

G ------------|------------|------------|------------|
D ------------|------------|------------|------------|
A ------------|-4--------4-|-6------6-4-|------------|
E -4--------4-|------------|------------|-4----2-----|

G ------------|------------|------------|------------|
D ------------|------------|------------|------------|
A ------------|------------|------------|------------|
E -0--------0-|-0--------0-|-2--------2-|-2----------|

G ------------|------------|------------|------------|
D ------------|------------|------------|------------|
A ------------|------------|-2--------2-|------------|
E -4--------4-|-0--------0-|------------|-2-----0-2--|

G ------------|------------|------------|------------|
D ------------|------------|------------|------------|
A ------------|------------|-2--------2-|------------|
E -4--------4-|-0--------0-|------------|-2--2-0-2-3-|

G ------------|------------|------------|------------|
D ------------|------------|------------|------------|
A ----------4-|------------|-6-4-6------|------------|
E -4-2-4------|------------|----------4-|-----2------|

G ------------|------------|------------|------------|
D ------------|------2-----|-4----------|------------|
A ------------|------------|----4-2-1---|------------|
E -0--------0-|-0----------|----------4-|-2------0-2-|

G ------------|------------|------------|------------|  }
D ------------|------------|------------|------------|  }
A ------------|------------|-2--------2-|------------|  }
E -4--------4-|-0--------0-|------------|-2------0-2-|  }
                                                                X2
G ------------|------------|------------|------------|  }
D ------------|------------|------------|------------|  }
A ------------|------------|-2--------2-|------------|  }
E -4--------4-|-0--------0-|------------|-2--2-0-2-3-|  }

G ------------|------------|------------|------------|
D ------------|------------|------------|------------|
A ---------2--|------------|-2-2--2---2-|------------|
E -4-4--4-4-4-|-0-0--0---0-|------------|-2-2-2-2-0-2|


************************************

| \  Slide down

************************************

            
            
Suggest correction
Creating personal tab
Creating personal tab
You can edit any tab online and save it as your Personal.

You can edit, replace or remove any tab part or add personal notes – all changes will be seen only by you.

Personal tabs can be accessed anytime from any device, even offline.
Learn more »
comments
print report bad tab
2 comments total.
0 reply
Muser00 1,083 Nov 29, 2014 04:44 AM

The tuning is dropped in D.

0 reply
Graham Kondak 51 Nov 30, 2015 03:00 PM

I played along to the song to this tab and it sounded right, so i don't think it's drop tuning.
Great tab.

guest
You may want to rate the tab now too:
select rating
Wanna post a correction for this tab? Suggest correction