Oops, an error
Loading. Please wait.

Still Loving You Bass Tab

version 2
version 2
1,508 views 3 this week
no commentswrite comment
1 2 3 4 5
poor
x 1
add to favorites
launch autoscroll
font size
0
reset
guitar tuner
Tab Pro tools
  • play this tab
  • loop segment
  • change instrument
  • show fretboard
  • metronome
×
Best way to learn
"Still Loving You"
Autoscroll
slow
fast
+/-
esc
set tempo
stop
Contributor
-----------------------------------------------------------------------------
                         STILL LOVING YOU - Scorpions
-----------------------------------------------------------------------------

Tabbed by: Matt Broback
E-mail: 37hambone@gmail.com

Tuning: Dropped D (D A D G)  *** All strings tuned down 1/4 note ***


INTRO
|-----------|---------|---------|----------|--------|
|:13---16---|14-------|14-------|13-------:|--------|
|:----------|---------|---------|---------:|--------|
|-----------|---------|---------|----------|--------|

|----------|---------|---------|---------|--------|--------|---------|----------|
|:13-------|13-------|13-------|13-------|-8------|-8------|13-------|13-------:|
|:---------|---------|---------|---------|--------|--------|---------|---------:|
|----------|---------|---------|---------|--------|--------|---------|----------|

|-----------|---------|---------|----------|--------|
|:13---16---|14-------|14-------|13-------:|--------|
|:----------|---------|---------|---------:|--------|
|-----------|---------|---------|----------|--------|


VERSE 1
|--------|--------|--------|--------|--------|--------|--------|--------|
|--------|--------|--------|--------|--------|--------|--------|--------|
|--------|--------|--------|--------|--------|--------|6------6|6-------|
|6------6|6-------|6------6|6-------|8------8|8-------|--------|-----98-|

|--------|--------|--------|--------|--------|--------|--------|--------|
|--------|--------|--------|--------|--------|--------|--------|--------|
|--------|--------|--------|--------|--------|--------|6-----66|6---21--|
|6------6|6-------|6------6|6-------|8------8|8-------|--------|---0--31|


CHORUS 1
|--------|--------|--------|--------|--------|--------|--------|--------|
|--------|--------|--------|--------|--------|--------|--------|--------|
|--------|--------|2------2|--------|--------|--------|2-------|--------|
|6------6|2------2|--------|4-----14|6------6|2------2|--------|44-4-141|

|--------|--------|--------|--------|--------|--------|--------|--------|
|--------|--------|--------|--------|--------|--------|--------|--------|
|--------|4------4|6-----64|--------|--------|--------|--------|--------|
|6------6|--------|--------|6---4---|2------2|2------2|4------4|4~~\----|


BRIDGE
|-----------|---------|---------|----------|--------|
|:13---16---|14-------|14-------|13-------:|--------|
|:----------|---------|---------|---------:|--------|
|-----------|---------|---------|----------|--------|


VERSE 2
|--------|--------|--------|--------|--------|--------|--------|--------|
|--------|--------|--------|--------|--------|--------|--------|--------|
|--------|--------|--------|--------|--------|--------|6------6|6-------|
|6------6|6-------|6------6|6-------|8------8|8-------|--------|-----98-|

|--------|--------|--------|--------|--------|---------|--------|--------|
|--------|--------|--------|--------|--------|12~~\8---|--------|--------|
|--------|--------|--------|--------|1-------|---------|6-----66|6---21--|
|6------6|6-----1-|6------6|6---4~~\|--------|---------|--------|---0--31|


CHORUS 2
|--------|--------|--------|--------|--------|--------|--------|--------|
|--------|--------|--------|--------|--------|--------|--------|--------|
|--------|--------|2------2|--------|--------|--------|2-------|--------|
|6------6|2------2|--------|4-----14|6------6|2------2|-------4|4--4-141|

|--------|--------|--------|--------|--------|--------|--------|--------|
|--------|--------|--------|--------|--------|--------|--------|--------|
|--------|4------4|6-----64|--------|--------|--------|--------|--------|
|6------6|--------|--------|6---4---|2------2|2------2|4------4|4~~\--14|

|--------|--------|--------|--------|--------|--------|--------|--------|
|--------|--------|--------|--------|--------|--------|--------|--------|
|--------|--------|2------2|--------|--------|--------|2-------|--------|
|6------6|2------2|--------|4-----24|6------6|2------2|-------4|4--4-242|

|--------|--------|--------|--------|--------|--------|----------|--------|
|--------|--------|--------|--------|--------|--------|----------|--------|
|--------|4-------|646-----|--------|--------|--------|----------|--------|
|646-----|--------|--------|6---4---|2------2|2------2|4-----11\6|4-----24|


OUTRO
|--------|--------|--------|--------|--------|--------|--------|--------|
|--------|--------|--------|--------|--------|--------|--------|--------|
|--------|--------|2------2|--------|--------|--------|2------2|--------|
|6------6|2------2|--------|44-4--14|6------6|2------2|--------|44-4-414|

|--------|--------|--------|--------|--------|--------|--------|--------|
|--------|--------|--------|--------|--------|--------|--------|--------|
|--------|--------|2------2|--------|--------|--------|2------2|--------|
|6------6|2------2|--------|44----14|6------6|2------2|--------|44-4-141|

|--------|--------|--------|--------|--------|--------|--------|--------|
|--------|--------|--------|--------|--------|--------|--------|--------|
|--------|--------|22-222~\|--------|--------|--------|22-22---|--------|
|66-66-9\|22222---|--------|44-4-414|66-66-9\|22222--2|------9\|44444-14|

|--------|--------|--------|--------|--------|--------|--------|--------|
|--------|--------|--------|--------|--------|--------|--------|--------|
|--------|--------|22-22---|--------|--------|--------|22-22---|--------|
|66-66-9\|22222--2|--------|44-4-414|66-66-9\|22-22--2|--------|44-4-41-|

|--------|--------|--------|--------|--------|--------|--------|--------|
|--------|--------|--------|--------|--------|--------|--------|--------|
|--------|--------|22-22---|--------|--------|--------|22-22-2-|--------|
|66-66-9\|22222---|--------|44-4-414|66-66-9\|2-22---2|--------|44-4-414|

|--------|--------|--------|--------|--------|--------|
|--------|--------|--------|--------|--------|--------|
|--------|--------|22-22---|--------|--------|--------|
|66-66-9\|22222--2|--------|44-44414|66-66-9\|2-22----|
comments
We did not receive enough feedback on this tab! Please rate:
print report bad tab
1 2 3 4 5
I want to post or [tab]
guest
You may want to rate the tab now too:
select rating
Please do not post tabs as comments. Select "correction" instead!