Oops, an error
Loading. Please wait.
We have Chord Pro version of Still Loving You.
It's the closest thing you can get to the original song and it has interactive parts. Check out the tab »
×

Still Loving You tab

164,892 views 45 this week
4 commentsread comments
1 2 3 4 5
x 4
add to favorites
×
Save as Personal and add changes to this tab that will be seen only by you. Learn more ›
×
You can save this tab as Personal to edit and correct it or add notes. All changes will be seen only by you. Learn more »
launch autoscroll
font size
0
reset
how to read this tab
guitar tuner
backing track
0:00
0:00
edit
Autoscroll
slow
fast
+/-
esc
set tempo
stop
Author
Difficulty
Band:  Scorpions
Album: Love at First Sting
Song:  Still Loving You

Copyright (c)  (Harvest) (1984)
Version 1.0 - (12/06/06)




Tuning Eb Ab Db Gb Bb Eb

Clean tone (let notes ring out)

e|---8---------8--------8------11-10-8-------8-------------7---------|
B|-----10--------10-------10-----------10------10------------9-------|
G|--------9---------9--------9--------------------9------------7-----|
D|----------------------------------------10----------10---------9---|
A|-7--------10--------8-------------------8--------------7-----------|
E|-------------------------------------------------------------------|

(Guitar 1)

e|--8---------8--------8------11-10-8-------8-------------7---------|
B|----10--------10-------10-----------10------10------------9-------|
G|-------9---------9--------9--------------------9------------7-----|
D|---------------------------------------10----------10---------9---|
A|7--------10--------8-------------------8--------------7-----------|
E|------------------------------------------------------------------|

(Guitar 2)                         h

e|-------5---------5--------5---------------5-----------------4-----|
B|-----5---------5--------5---4-3-4p3-1-------6-----------3---------|
G|--5---------5--------5----------------2--------5----------4-------|
D|7--------5---------3-------------------3----------3---2-----------|
A|------------------------------------------------------------------|
E|------------------------------------------------------------------|


[Verse]

(Guitar 1)

e|--8------8------8---8------8------8--|
B|----10-----10---------10-----10------|
G|-------9------9----------9------9----|
D|-------------------------------------|
A|7-----------------7------------------|
E|-------------------------------------|

(Guitar 2)

e|--------------5-----------------5----|
B|---------5------------------5--------|
G|-----5-----5------------5-----5------|
D|--7----7-------------7----7----------|
A|7-----------------7------------------|
E|-------------------------------------| Rpt

(Guitar 1)

e|---11-------11-------11----11--------11-------11--|
B|------12-------12-------------12--------12--------|
G|11-------11-------11--------------11-------11-----|
D|------------------------13------------------------|
A|--------------------------------------------------|
E|--------------------------------------------------|

(Guitar 2)

e|--------------------------------------------------|
B|---------------------5-------------------------6--|
G|------------------6-------------------------6-----|
D|--------------7-------------------------7---------|
A|------------7---7---------------------7---7-------|
E|--------------------------------------------------|

(Guitar 1)

e|---------------------------------|
B|--9-----9-----9---9-----9-----9--|
G|----9-----9---------9-----9------|
D|------9-----9---------9-----9----|
A|7---------------7----------------|
E|---------------------------------|

(Guitar 2)

e|--------------4---------------4--|
B|----------5---------------5------|
G|--------4---4-----------4---4----|
D|---------------------------------|
A|---------------------------------|
E|---------------------------------|

(Guitar 1)

e|--8------8------8---8------8------8--|
B|----10-----10---------10-----10------|
G|-------9------9----------9------9----|
D|-------------------------------------|
A|7-----------------7------------------|
E|-------------------------------------|

(Guitar 2)

e|--------------5-----------------5----|
B|---------5------------------5--------|
G|-----5-----5------------5-----5------|
D|--7----7-------------7----7----------|
A|7-----------------7------------------|
E|-------------------------------------| Rpt

(Guitar 1)

e|---11-------11-------11----11--------11-------11--|
B|------12-------12-------------12--------12--------|
G|11-------11-------11--------------11-------11-----|
D|------------------------13------------------------|
A|--------------------------------------------------|
E|--------------------------------------------------|

(Guitar 2)

e|--------------------------------------------------|
B|---------------------5-------------------------6--|
G|------------------6-------------------------6-----|
D|--------------7-------------------------7---------|
A|------------7---7---------------------7---7-------|
E|--------------------------------------------------|

(Guitar 1)

e|-----------------------------|
B|--9-----9-----9--------------|
G|----9-----9-----9------------|
D|------9-----9----------------|
A|7-----------------7----------|
E|-----------------------------|

(Guitar 2)

e|------------0-4-5-4----------|
B|-----------------------------|
G|--------4--------------------|
D|----------2------------------|
A|-----------------------------|
E|-----------------------------|

(Guitar 3)
     
     ~~~~~~~~~~~~~~~~~~~~~~~
e|-----------------------------|
B|-----------------------------|
G|---9-------------------------|
D|-----------------------------|
A|-----------------------------|
E|-----------------------------|

Backing for solo

e|---8---------8--------8------11-10-8-------8-------------7---------|
B|-----10--------10-------10-----------10------10------------9-------|
G|--------9---------9--------9--------------------9------------7-----|
D|----------------------------------------10----------10---------9---|
A|-7--------10--------8-------------------8--------------7-----------|
E|-------------------------------------------------------------------|Rpt


[Guitar Solo]

(light overdrive)

            ~~~     ~~~        ~~~~           ~~~~~~~~~~
e|-------------------------------------------------------------------|
B|-------------------------------------------------------------------|
G|-----4-5-7---5\4-5---4-2-4/5\4----2-4-5-7-5-7---b------------------|
D|-5/7---------------------------------------------------------------|
A|-------------------------------------------------------------------|
E|-------------------------------------------------------------------|

Full distortion
     ~~~~       ~~~~~~       ~~~~          ~~~~~~~~~~~
e|-------------------------------------15-15fb-----------------------|
B|-/10---12-13-15b----13-12-13---10-13----------------15fbr15p13-----|
G|---------------------------------------------------------------14--|
D|-------------------------------------------------------------------|
A|-------------------------------------------------------------------|
E|-------------------------------------------------------------------|

       h~~~~~~~~~~~~~~~~~~~~~~~~
e|---------------------------------|
B|-13-15-------------b-------------|
G|---------------------------------|
D|---------------------------------|
A|---------------------------------|
E|---------------------------------|

Rpt Verse with drums and bass

   Fade in
e|--------------------------------|
B|--------------------------------|
G|-9----------(9)-----------------|
D|-9----------(9)-----------------|
A|-7----------(7)-----------------|
E|--------------------------------|


[Chorus]

(Guitar 1)

e|------------------------------------------|
B|------------------------------------------|
G|2---(2)---5---(5)-------------7---(7)-----|
D|2---(2)---3---(3)---5---(5)---5---(5)-----|
A|0---(0)-------------3---(3)---------------|
E|------------------------------------------|

(Guitar 2)

e|------------------------------------------|
B|------------------------------------------|
G|2---(2)---10---(10)-----------------------|
D|2---(2)---10---(10)\5---(5)---5---(5)-----|
A|0---(0)---8----(8)-\3---(3)---5---(5)-----|
E|------------------------------3---(3)-----|

(Guitar 1)

e|-------------------------------------------|
B|-------------------------------------------|
G|2---(2)---5---(5)-------------7-7--(7)-----|
D|2---(2)---3---(3)---5---(5)---5-5--(5)-----|
A|0---(0)-------------3---(3)----------------|
E|-------------------------------------------|

(Guitar 2)

e|-------------------------------------------|
B|-------------------------------------------|
G|2---(2)---10---(10)------------7-7-------\-|
D|2---(2)---10---(10)-\5---(5)---5-5--(5)--\-|
A|0---(0)---8----(8)--\3---(3)---------------|
E|-------------------------------------------|

(Guitar 1)

e|-----------------------------------------|
B|-----------------------------------------|
G|2---(2)---7---(7)---9---(9)---2---(2)----|
D|2---(2)---7---(7)---9---(9)---2---(2)----|
A|0---(0)---5---(5)---7---(7)---0---(0)----|
E|-----------------------------------------|

(Guitar 2)

e|-----------------------------------------|
B|-----------------------------------------|
G|2---(2)---7---(7)---9---(9)---2---(2)----|
D|2---(2)---7---(7)---9---(9)---2---(2)----|
A|0---(0)---5---(5)---7---(7)---0---(0)----|
E|-----------------------------------------|

(Guitar 1)

e|--------------------------------------------------------|
B|--------------------------------------------------------|
G|10-10-10-10------(8)-------10-10-12-----(12)----12--\---|
D|10-10-10-10------(8)-------10-10-12-----(12)----12--\---|
A|8--8--8--8-------(8)-------8--8--10-----(10)----10--\---|
E|--------------------------------------------------------|

 (Guitar 2)
              h       h   h                   h 
e|--------------------------------------------------------|
B|--------------------------------------------------------|
G|------------------------------------------------12--\---|
D|------------------------------------------------12--\---|
A|8-------p7-8---8p7-8p7-8p7----7/10------p9-10-9-10--\---|
E|--------------------------------------------------------|

(repeat intro)


[Guitar Solo]

            ~~~~~    ~~~~~        ~~~~~~~~~~~                  ~~~~~~
e|----------------------------15-15fb----------------------------------|
B|-------------------------------------------15br15-13----13-15----b---|
G|-----4-5-7-b---5-4-5------5----------------------------14------------|
D|-5/7--------------------7--------------------------------------------|
A|---------------------------------------------------------------------|
E|---------------------------------------------------------------------|

Rpt. Verse with lead fills below

                ~~~~~~~~
e|-----------------------|
B|-----------------------|
G|----------5b-----------|
D|------5-7----7---------|
A|-/5-7------------------|
E|-----------------------|

e|-------------------|
B|-7b--7r------------|
G|-7b--7rp5----------|
D|----------7p5-7p5--|
A|-------------------|
E|-------------------|

                ~~~~~~~~
e|-----------------------|
B|-----------------------|
G|----------5b-----------|
D|------5-7----7---------|
A|-/5-7------------------|
E|-----------------------|

(Guitar 1)

e|----------------------------------|
B|7b--7r----------------------------|
G|7b--7rp5--------------------------|
D|---------7p5-7p5------------------|
A|-----------------2----------------|
E|----------------------------------|

 (Guitar 2)          
                   ~~~~~~~~~~~~~~~~~
e|----------------------------------|
B|7b--7r----------------------------|
G|7b--7rp5---------7----------------|
D|---------7p5-7p5------------------|
A|----------------------------------|
E|----------------------------------|

e|------------------|
B|-------10-9-------|
G|-9----------9-----|
D|-9------------9---|
A|-7----------------|
E|------------------|

 Rpt Chorus  with alterations and lead fills

(Guitar 1)

e|-----------------------------------------|
B|-----------------------------------------|
G|2---(2)---7---(7)---9---(9)---2----0-----|
D|2---(2)---7---(7)---9---(9)---2----0-----|
A|0---(0)---5---(5)---7---(7)---0----------|
E|-----------------------------------3-----|

(Guitar 2)

e|-----------------------------------------|
B|-----------------------------------------|
G|2---(2)---7---(7)---9---(9)---2----0-----|
D|2---(2)---7---(7)---9---(9)---2----0-----|
A|0---(0)---5---(5)---7---(7)---0----------|
E|-----------------------------------3-----|

(Guitar 1)

e|------------------------------------------|
B|------------------------------------------|
G|2---(2)---5---(5)-------------7---(7)-----|
D|2---(2)---3---(3)---5---(5)---5---(5)-----|
A|0---(0)-------------3---(3)---------------|
E|------------------------------------------|

(Guitar 2)

e|------------------------------------------|
B|------------------------------------------|
G|2---(2)---10---(10)-----------------------|
D|2---(2)---10---(10)\5---(5)---5---(5)-----|
A|0---(0)---8----(8)-\3---(3)---5---(5)-----|
E|------------------------------3---(3)-----|
 
                   ~~~~~~~~~
e|----------------------------|
B|----------------------------|
G|----------------5-----------|
D|------------5-7---7---------|
A|--------5-7-----------------|
E|-5b-5-3---------------------|

    ~~~~~~~~~~~~~~~~~~~~~~~~
e|----------------------------|
B|-10-----------------------\-|
G|----------------------------|
D|----------------------------|
A|----------------------------|
E|----------------------------|

   (Guitar 1)
e|------------------------------------------|
B|------------------------------------------|
G|2---(2)---5---(5)-------------7---(7)-----|
D|2---(2)---3---(3)---5---(5)---5---(5)-----|
A|0---(0)-------------3---(3)---------------|
E|------------------------------------------|

(Guitar 2)

e|------------------------------------------|
B|------------------------------------------|
G|2---(2)---10---(10)-----------------------|
D|2---(2)---10---(10)\5---(5)---5---(5)-----|
A|0---(0)---8----(8)-\3---(3)---5---(5)-----|
E|------------------------------3---(3)-----|


e|----------------------------|
B|-pb15---r--15p13-12-------\-|
G|----------------------------|
D|----------------------------|
A|----------------------------|
E|----------------------------|

(Guitar 1)

e|-------------------------------------------------|
B|-------------------------------------------------|
G|--------------7-------(7)-----/9\7/9-------------|
D|7\5/7---------7-------(7)-----/9\7/9-------------|
A|7\5/7---------5-------(5)-----/7\5/7-------------|
E|5\3/5--------------------------------------------|

 (Guitar 2)                     
                               ~~~~~~~~~~~~~~~~~
e|------------------22fbrp19-22fb---------------\--|
B|-------------------------------------------------|
G|-------------------------------------------------|
D|-------------------------------------------------|
A|-------------------------------------------------|
E|-------------------------------------------------|

(Guitar 1)

e|--------------------------------------------------------|
B|--------------------------------------------------------|
G|10-10-10-10------(8)-------10-10-12-----(12)----12--\---|
D|10-10-10-10------(8)-------10-10-12-----(12)----12--\---|
A|8--8--8--8-------(8)-------8--8--10-----(10)----10--\---|
E|--------------------------------------------------------|

(Guitar 2)

              h       h   h                   h 
e|--------------------------------------------------------|
B|--------------------------------------------------------|
G|------------------------------------------------12--\---|
D|------------------------------------------------12--\---|
A|8-------p7-8---8p7-8p7-8p7----7/10------p9-10-9-10--\---|
E|--------------------------------------------------------|

 (Guitar 3)
                                          ~~~~~~~~~
e|--------------------------------------------------------|
B|--------------------------------------------------------|
G|--------------------------------------5-----------------|
D|----------------------------------5-7---7---------------|
A|------------------------------5-7-----------------------|
E|-----------------------5b-5-3---------------------------|

Backing for Outro solo is first riff of chorus


[Outro Solo]

e|-12-15b---15b-15-12-------15-----------|
B|--------------------15b------15br15--\-|
G|---------------------------------------|
D|---------------------------------------|
A|---------------------------------------|
E|---------------------------------------|

                    ~~~~~~~~~~~~     ~~~~~~~~~~~~~~~
e|-17-19-20-22fb-22-22fb-----r-22-19-22--------------|
B|---------------------------------------------------|
G|---------------------------------------------------|
D|---------------------------------------------------|
A|---------------------------------------------------|
E|---------------------------------------------------|

                                          ~~~~~~~~~~
e|-------------13br13---------15b-15-15b-15---------|
B|-10-10-12-13--------------------------------------|
G|--------------------------------------------------|
D|--------------------------------------------------|
A|--------------------------------------------------|
E|--------------------------------------------------|


    ~~~~~~~~~~~~~~~~~~~~~~~~~               h     ~~~
e|-22fb-r19-22fb----22fb-----\-17-19-20p19-20p19------17-19-20-19--|
B|-----------------------------------------------20b---------------|
G|-----------------------------------------------------------------|
D|-----------------------------------------------------------------|
A|-----------------------------------------------------------------|
E|-----------------------------------------------------------------|

                     h           h           h            h
e|-17-19----------12-15p12----12-15p12----12-15p12----12-15p12----|
B|-------19-17-------------15----------15----------15----------15-|
G|----------------------------------------------------------------|
D|----------------------------------------------------------------|
A|----------------------------------------------------------------|
E|----------------------------------------------------------------|

      h                                           h           h            
e|-12-15p12----15--15--15-15-15p12----12----------15p12----12-15b----|
B|----------15---------------------15----15-14-15-------15-----------|
G|-------------------------------------------------------------------|
D|-------------------------------------------------------------------|
A|-------------------------------------------------------------------|
E|-------------------------------------------------------------------|

     ~~~~~~~~~~~                          ~~~~~~~~~
e|--------------12-13-15-13p12\10-12--13------------------------------|
B|-15fb----------------------------------15b--------15p13----15p13----|
G|--------------------------------------------------------14-------14-|
D|--------------------------------------------------------------------|
A|--------------------------------------------------------------------|
E|--------------------------------------------------------------------|

                   ~~~~~~~~  ph          |-PM--]
|--------------15------------------------------------------|
|-15p13----15b----15fb-----\-------------------------------|
|-------14-------------------77777p5---5-----------777p5---|
|------------------------------------7---7p5-----7-------7-|
|--------------------------------------------7p5-----------|
|----------------------------------------------------------|

     ~~~~~~~             ~~~~~~~~~~~~~               ~~~~~~~~~~ 
e|-15fb-----r--------------------------15fbr15-15fb-15----------|
B|------------14-15-17-17fb-r fb--------------------------------|
G|--------------------------------------------------------------|
D|--------------------------------------------------------------|
A|--------------------------------------------------------------|
E|--------------------------------------------------------------|

                     ~~~~~~~~~
e|-----------------------------12-13p12----13-12-------13p12---------|
B|-15-13-12-10b9-10-10br---------------------------------------------|
G|-------------------------------------------------------------------|
D|-------------------------------------------------------------------|
A|-------------------------------------------------------------------|
E|-------------------------------------------------------------------|

                      h    h     h     h     h     h     h     h
e|-12-13-12----13p12-13p12-13p12-13p12-13p12-13p12-13p12-13p12-13p12-|
B|-------------------------------------------------------------------|
G|-------------------------------------------------------------------|
D|-------------------------------------------------------------------|
A|-------------------------------------------------------------------|
E|-------------------------------------------------------------------|

    ~~~~~~~~~~~~            ~~~~~~~~~~~           ~~~~~~
e|-15fb---------------------------------17-15-17-15---------------|
B|--------------14-15-17-17fb--r17-----------------------15-13-12-|
G|----------------------------------------------------------------|
D|----------------------------------------------------------------|
A|----------------------------------------------------------------|
E|----------------------------------------------------------------|


e|--------------------12-13p12----13-12-------13p12-------12-13p12-|
B|-10-9-10-10br----------------------------------------------------|
G|-----------------------------------------------------------------|
D|-----------------------------------------------------------------|
A|-----------------------------------------------------------------|
E|-----------------------------------------------------------------|

    h    h     h     h     h     h     h     h     h
e|-13p12-13p12-13p12-13p12-13p12-13p12-13p12-13p12-13p12-|
B|-------------------------------------------------------|
G|-------------------------------------------------------|
D|-------------------------------------------------------|
A|-------------------------------------------------------|
E|-------------------------------------------------------|

Rpt. to fade

************************************

| /    slide up to
| \    slide down to      
| ~    vibrato
| h    hammer on          
| b    Bend
| p    pull off            
| t    tap                 
| f    full bend    
| h    half bend
| ph   pinched harmonic    
| q    quarter bend t - tap bend
| p    pre bend
| *    see comment         
| ^    Hold bend    
| r    release bend
| x    Stuccatto           
| ~    vibrato bend
| ,    slight palm mute    
| ()   ghost note, sustained note
| "    tremolo note        
| <>   harmonic
| .    palm mute

************************************

            
            
Suggest correction
Creating personal tab
Creating personal tab
You can edit any tab online and save it as your Personal.

You can edit, replace or remove any tab part or add personal notes – all changes will be seen only by you.

Personal tabs can be accessed anytime from any device, even offline.
Learn more »
comments
print report bad tab
4 comments total. Showing first comments.
+3 reply
boogey 10 Nov 27, 2008 07:31 AM

who ever did this tab 2 thumbs up and a boner :D ............... bout time some one took time to write it all out well thank you dude !!!!!

0 reply
clemstach34 40 Aug 28, 2009 09:13 AM

oua it's a great tab man with the both guitar and the outro
nothing to say!!!! except thank you

0 reply
tdog1895 10 Oct 10, 2010 03:12 PM

the tab is great but the tunning sound weird.. idk may just be my strings.

guest
You may want to rate the tab now too:
select rating
Wanna post a correction for this tab? Suggest correction