Oops, an error
Loading. Please wait.
We have an official Still Loving You tab made by UG professional guitarists. Check out the tab »
×

Still Loving You tab

625 views 18 this week
no commentswrite comment
1 2 3 4 5
1 last vote to show rating
add to favorites
×
Save as Personal and add changes to this tab that will be seen only by you. Learn more ›
×
You can save this tab as Personal to edit and correct it or add notes. All changes will be seen only by you. Learn more »
launch autoscroll
font size
0
reset
how to read this tab
guitar tuner
backing track
0:00
0:00
edit
Autoscroll
slow
fast
+/-
esc
set tempo
stop
About this tab version
My version is correct to [verse] and refrain is differente. Was this info helpful? Yes No
[Intro]

  Gm       Gm/F     Gm/Eb                           D7                       
e|---6--------6--------6------9\8-6--------6------------5--------------------|
B|-----8--------8--------8----------8---8----8-------7-----7-----------------|
G|-------7--------7--------7------------7------7-----5-------5---------------|
D|-0------------------------------------8--------8---7---------7-------------|  x2
A|----------8--------6------------------6------------5-----------------------|
E|---------------------------------------------------------------------------|


[Verse 1]

  Gm                                                                         
e|---6-----6-----6--|---6-----6-----6-|---6-----6-----6-|---6-----6------6---|
B|-----8-----8------|-----7-----7-----|-----7-----7-----|-----7-----7--------|
G|-------7-----7----|-------8-----8---|-------8-----8---|-------8-----8------|
D|-0----------------|-0---------------|-0---------------|-0------------------|
A|------------------|-----------------|-----------------|--------------------|
E|------------------|-----------------|-----------------|--------------------|
  Time     it needs  time         to win back your love again  I will be 
  Love     only      love        can bring back your love someday I will be
 A                                    D                                          x2
e|---9-----9-----9--|---9-----9-----9-|---2-----2-----2-|---2-----2------2---|
B|-----10----10-----|-----10----10----|-----3-----3-----|-----3-----3--------|
G|-9-----9-----9----|-9-----9-----9---|-------2-----2---|-------2-----2------|
D|------------------|-----------------|-0---------------|-0------------------|
A|------------------|-----------------|-----------------|--------------------|
E|------------------|-----------------|-----------------|--------------------|
  there                    I will be   there.
  there                    I will be   there.

[Solo 1] ( Or play Intro x2 ) 

e|---------------------------------------------------------------------------|
B|---------------------------------------------------------------------------|
G|------2h3-5-----3p2h3--3p2h3--2------2--3--5--3--5--^^^^^^^^-7-------------|
D|-3/5------------------------------5------------------slowly----------------|
A|---------------------------------------------------------------------------|
E|---------------------------------------------------------------------------|
                                                                           
                                                                               
e|----------------------------------------10-13-13^15------------------------|
B|-------10h11-13---11p10h11-----10-11-13-------------13^15v13-11-13^^^^15---|
G|-10/12----------------------12------------------------------------slowly---|
D|---------------------------------------------------------------------------|
A|---------------------------------------------------------------------------|
E|---------------------------------------------------------------------------|


[Verse 2]

  Gm                                                                         
e|---6-----6-----6--|---6-----6-----6-|---6-----6-----6-|---6-----6------6---|
B|-----8-----8------|-----7-----7-----|-----7-----7-----|-----7-----7--------|
G|-------7-----7----|-------8-----8---|-------8-----8---|-------8-----8------|
D|-0----------------|-0---------------|-0---------------|-0------------------|
A|------------------|-----------------|-----------------|--------------------|
E|------------------|-----------------|-----------------|--------------------|
  Fight Babe  I'll   fight         to win back your love again   I will be 
  Love        only   love         can break down the walls someday I will be
 A                                    D                                          x2
e|---9-----9-----9--|---9-----9-----9-|---2-----2-----2-|---2-----2------2---|
B|-----10----10-----|-----10----10----|-----3-----3-----|-----3-----3--------|
G|-9-----9-----9----|-9-----9-----9---|-------2-----2---|-------2-----2------|
D|------------------|-----------------|-0---------------|-0------------------|
A|------------------|-----------------|-----------------|--------------------|
E|------------------|-----------------|-----------------|--------------------|
  there                    I will be   there.
  there                    I will be   there.

[Refrain]

  Gm                  Eb                Bb                F
e|------------------|-----------------|-----------------|--------------------|
B|------------------|-----------------|-----------------|--------------------|
G|------------------|-----------------|-----------------|--------------------|
D|------------------|-8---------8-8---|-----------------|--------------------|  x2
A|-5----------5-5---|-6---------6-6---|-8---------8-8---|-3-----------3-3----|
E|-3----------3-5---|-----------------|-6---------6-6---|-1-----------1-1----|
  If we'd            go again,         all the way from start,
  I would            try to change,the things that killed our love.
  Gm                  Cm                D                 Gm
e|------------------|-----------------|-----------------|--------------------|
B|------------------|-----------------|-----------------|--------------------|
G|------------------|-----------------|-----------------|--------------------|
D|------------------|-5---------5-5---|-7---------7-7---|--------------------|  
A|-5----------5-5---|-3---------3-3---|-5---------5-5---|-5------------5-5---|
E|-3----------3-5---|-----------------|-----------------|-3------------3-5---|
 Your pride has     built a wall, so strong that I can't get through.
   Eb                                   F
e|------------------|-----------------|-----------------|--------------------|
B|------------------|-----------------|-----------------|--------------------|
G|------------------|-----------------|-----------------|--------------------|
D|-8----------------|-----------------|-10--------------|--------------------|  
A|-6---5-6-5-6------|-----------------|-8---7-8-7-8-----|--------------------|
E|------------------|-----------------|-----------------|--------------------|
 Is there really no chance          to start once again.

[Verse 3]

 Gm 
Try, baby try to trust in my love again.
          A                D
I will be there, I will be there.
Gm
Love our love, Just shouldn't be thrown away
          A                D
I will be there, I will be there.

[Refrain]

 Gm      Eb        Bb                     F
If we'd go again, all the way from start,
Gm      Eb                 Bb                     F
I would try to change, the things that killed our love.
 
Gm F Gm         Cm                      D    C  D
      Yes, I've hurt your pride, and I know
                      Gm
What you've been through
           Eb [lick A]
You should give me a chance
      F
This can't be the end
                  Gm  Eb Bb   F 
I'm still loving you 
                  Gm  Eb Bb   F
I'm still loving you 
                  Gm  Eb Bb   F
I'm still loving you  I need your love                
           
                  Gm  Eb Bb   F
I'm still loving you
 
Still loving you baby...

            
            
Suggest correction
Creating personal tab
Creating personal tab
You can edit any tab online and save it as your Personal.

You can edit, replace or remove any tab part or add personal notes – all changes will be seen only by you.

Personal tabs can be accessed anytime from any device, even offline.
Learn more »
Give kudos to tab author, rate the tab!
1 2 3 4 5
comments
print report bad tab
guest
You may want to rate the tab now too:
select rating
Wanna post a correction for this tab? Suggest correction