Oops, an error
Loading. Please wait.

Tease Me Please Me Tab

version 1
version 1

Whole song

Interactive

14,818 views 21 this week
3 commentsread comments
1 2 3 4 5
accurate
x 7
add to favorites
launch autoscroll
font size
0
reset
how to read this tab
guitar tuner
Autoscroll
slow
fast
+/-
esc
set tempo
stop
Help us to improve Ultimate-Guitar.com Take our survey!
×
Author
i noticed there was no tab with the lead part for this song so i did one...

guitar1 - has explorer in the video
guitar2 - has v in video

key
b bend
vhold vibrate and hold untill next note or 'r'
bhold bend and hold untill next note 'r'
r release bend
v vibrato
h hammer
p pull-off
x muted note
/ slide up
\ slide down
() optional or quiter note

INTRO
i've marked on when guitar2 does his chords below to help with timing.
sounds better with a whammy bar but i havent got one so here goes...
e|-------------------------------------------------------------------------|
B|---------------------------12-13-(\)----9121011---10-----7--8---4--------|
G|----------------7b/9-----------------------------------------------------|
D|-------------------------------------------------------------------------|
A|-------------------------------------------------------------------------|
E|-------------------------------------------------------------------------|
  *      *      *          *      *      *          *      *      * 

e|12v--10(\)-7(\)---5b--------------|
B|----------------------------------|
G|----------------------------------|
D|----------------------------------|
A|----------------------------------|
E|----------------------------------|
       *      *      *    *****


MAIN RIFF 0:40
e|-------------------|------------------|
B|-------------------|------------------|
G|-------------------|------------------|
D|--------0----------|--------0---------|
A|---1--2---4-0------|----1-2---4-0-----|
E|-0------------3-0--|--0-----------3~--|
play 4 times then do main riff pt2...
e|-------------------|------------------|
B|-------------------|------------------|
G|-------------------|------------------|
D|--------0----------|--------0---x-----|
A|---1--2---4-0------|----1-2---4---4---|
E|-0------------3-0--|--0---------------|

VERSE1 0:56
e|-------------------------------------------------------------------------|
B|-------------------------------------------------------------------------|
G|--2----------------------2----------------------2----------2-------------|
D|--2----------------------2----------------------2---3-2----2---3-2-------|
A|--0-----(x--x--x---x)----0-----(x--x--x---x)----0---3-2----0---3-2-------|
E|-------------------------------------------------------------------------|
    been around the world  Known a lot of girls   living and loving

e|------------------------------------|
B|------------------------------------|
G|------3-----------------------------|
D|------3-----------------------------|
A|------5-----------------------------|
E|------------------------------------|
   it's hard to keep 'em all in line
                                  ^
                                  |
(if you want to improvise something on the A minor scale here it should fit)

play main riff once then main riff pt2 then...

VERSE2 1:10
   
play main riff once then main riff pt2 then...

PRE-CHORUS 1:25
e|-------------------------------------------------------|
B|-3-----------------------------------------------------|
G|-2-----------------------2--------------------22----22-|
D|-0-----------------------2--------------------22----22-|
A|-------------------------0-------------------x00-44-00-|
E|-------------------------------------------------------|
  never wasted any time    never missed a beat 


e|-------------------------------------------------------|
B|-3-----------------------------------------(465-56-54)-|
G|-2-----------------------2-----------------------------|
D|-0-----------------------2-----------------------------|
A|-------------------------0-----------------------------|
E|-------------------------------------------------------|
  total satisfaction    always garanteed

CHORUS 0:39
i'm not sure which guitar plays what in this bit so i'l put both parts...
(lets call the bit above the words pt1 and the bit below pt2
e|-------------------------------------------------------------------------|
B|---5-5-5-5-5-5-5-5-5-5-5-5-5-5-5-5-5-5-5-5-5-5-5-5-5-5-5-5-5-5-5-5-5-5---|
G|---5-5-5-5-5-5-5-5-5-5-5-5-5-5-5-5-5-5-5-5-5-5-5-5-5-5-5-5-5-5-5-5-5-5---|
D|-------------------------------------------------------------------------|
A|-------------------------------------------------------------------------|
E|-------------------------------------------------------------------------|
 |  tease me   please me  and no one needs to know, oh no                  |
e|-------------------------------------------------------------------------|
B|--2232-------2232--------------------------------------------------------|
G|--2232-------2232--------------------------------------------------------| 
D|--2232-------2232-----------2--3----6--5----3--2--2---2---5-4-3----------|
A|--3333-------3333-----------2--3----6--5----3--2--2---2---5-4-3----------|
E|-------------------------------------------------------------------------|


e|-------------------------------------------------------------------------|
B|---5-5-5-5-5-5-5-5-5-5-5-5-5-5-5-5-5-5-5-5-5-5-5-5-5-5-5-----------------|
G|---5-5-5-5-5-5-5-5-5-5-5-5-5-5-5-5-5-5-5-5-5-5-5-5-5-5-5-----------------|
D|-------------------------------------------------------------------------|
A|-------------------------------------------------------------------------|
E|-------------------------------------------------------------------------|
 |  tease me   please me      before i have to go                          |
e|-------------------------------------------------------------------------|
B|--2232-------2232--------------------------------------------------------|
G|--2232-------2232--------------------------------------------------------| 
D|--2232-------2232-----------2--3----6--5----3--2--2---2------------------|
A|--3333-------3333-----------2--3----6--5----3--2--2---2------------------|
E|-------------------------------------------------------------------------|

 then play the main riff 3 times before playing part 2,
after the secondpart he manages to play this at the same time (somehow)
 each bar signifies a bar in the main riff to help with timing...

e|--9bhold--|--7bhold--|--9bhold--|-(/)-12h14p\9h11p\7h9p\-----------------|
B|----------|----------|----------|----------------------------------------|
G|----------|----------|----------|----------------------------------------|
D|----------|----------|----------|----------------------------------------|
A|----------|----------|----------|----------------------------------------|
E|----------|----------|----------|----------------------------------------|

 VERSE3 2:10

 play main riff once then main riff pt2 then...

 VERSE4 2:25
  
at the star above you play (as fast as you can)
e|-13-9p7h9--------------|
B|----------9p7----9p7---|
G|--------------9p7---9p7|
D|-----------------------|
A|-----------------------|
E|-----------------------|


play main riff once then main riff pt2 (singer repeats last line of verse during this)

PRE-CHORUS 2:42
this time play
e|-----------------------------------------------------------------slowly--|
B|-9vv-------------7vv------------------------9vv------------7vv-----/12---|
G|-------------------------------------------------------------------------|
D|-------------------------------------------------------------------------|
A|-------------------------------------------------------------------------|
E|-------------------------------------------------------------------------|
  never wasted any time, never missed a beat, total satisfaction, garanteed


CHORUS X2 2:53
the first time you play it you play the same as before but after that pt1 changes to...
e|---------12v13v-----12v13v-----------------------------------------------|
B|-------------------------------------------------------------------------|
G|-------------------------------------------------------------------------|
D|-------------------------------------------------------------------------|
A|-------------------------------------------------------------------------|
E|-------------------------------------------------------------------------|
   tease me,  please me,  and no-one needs to know, oh no

e|---------12v13v-----12v13v-----------------------------------------------|
B|-----------------------------------(7h9p8-10h12p11)--14------------------|
G|-------------------------------------------------------------------------|
D|-------------------------------------------------------------------------|
A|-------------------------------------------------------------------------|
E|-------------------------------------------------------------------------|
   tease me,  please me,  just let the feeling glow,     let it glow


SOLO 3:22
i have how far through the song we are above each line to help you learn it...
e|------------------------------------------------17-----------------------|
B|-13v13v13v-11h13p12-121112---16-15h17p16-16---16---15h17p16-16-----------|
G|-------------------------------------------------------------------------|
D|-------------------------------------------------------------------------|
A|-------------------------------------------------------------------------|
E|-------------------------------------------------------------------------|

3:28
the drums spead up at the star                   *
e|----------------------------------------910910-7h9p8-9h11p10-12h14p13-15v|
B|-------------------------------------------------------------------------|
G|-13-13-13-13\11p101112----4h6p4-5-4-5------------------------------------|
D|-------------------------------------------------------------------------|
A|-------------------------------------------------------------------------|
E|-------------------------------------------------------------------------|

PRE-CHORUS 3:36
e|-9vhold-----------------------------------r------------------------------|
B|-------------------------------------------------------------------------|
G|-------------------------------------------------------------------------|
D|-------------------------------------------------------------------------|
A|-------------------------------------------------------------------------|
E|-------------------------------------------------------------------------|
   never wasted any time, never missed a beat

e|-9vhold-----------7vhold--------------r----------------------------------|
B|-------------------------------------------------------------------------|
G|-------------------------------------------------------------------------|
D|-------------------------------------------------------------------------|
A|-------------------------------------------------------------------------|
E|-------------------------------------------------------------------------|
  total satisfaction   always garanteed


CHORUS 3:51
on the first time don't play pt2
after that you play the same chorus as the last time
then play the normal chorus twise while fading out.
Suggest correction
comments
print report bad tab
3 comments total.
-1 reply
guitarpassion 10 wrote on January 19 2009, 02:47 pm

ahh.. thanks for tabbing this..

-1 reply
Marius Vingis 15 wrote on January 22 2009, 09:46 am

A very tab version of this song......

0 reply
toasted7887 152 wrote on February 15 2009, 12:05 pm

a very 'tab' version of this song...eh?? what's that meant to mean?

guest
You may want to rate the tab now too:
select rating
Wanna post a correction for this tab? Suggest correction